Oops, an error
Loading. Please wait.

Quien Piensa En Tí tab

55 views 1 this week
no commentswrite comment
1 2 3 4 5
3 more votes to show rating
add to favorites
×
Save as Personal and add changes to this tab that will be seen only by you. Learn more ›
×
You can save this tab as Personal to edit and correct it or add notes. All changes will be seen only by you. Learn more »
launch autoscroll
font size
0
reset
how to read this tab
guitar tuner
edit
Autoscroll
slow
fast
+/-
esc
set tempo
stop
HOLA PANAS ESTA CANCION QUIERO DEDICAR AL
AMOR DE MI VIDA AHORA CREO MI AMIGA NO TENGO
NADA Q PERDONARTE VANNE
POR HALGO SUCEDEN LAS COSAS BUENO PUES ME HAS
 CANBIANDO LA ILUCION POR DOLOR ARRIBA A.C.S


S26   CARLOS JARA,MARCO DUQUE,JC REYES, PATO VELA

esto si esta 100% CORECCTO COMO SUENA EN REALIDAD PANAS
DE LA CUERDA
INTRO
  Em*

E/--7--------------I--7----------------I
B/-----8-----------I-----8--------8----I
G/--------9-----9--I--------9----------I
D/-----------9-----I-----------9-------I
A/--7--------------I--7----------------I
E/--7--------------I--7----------------I
                                           X4


   E5                             G5  F#5
E/------------------------------I--------I
B/------------------------------I--------I
G/------------------------------I--------I
D/--2--2--X--2--2--X--2--2--X-2-I--5--4--I
A/--2--2--X--2--2--X--2--2--X-2-I--5--4--I
E/--0--0--X--0--0--X--0--0--X-0-I--3--2--I
                                            X4

  Em*
  LAS   MANOS   EN   LOS   BOLSILLOS
E/--7--------------I--7-------------I
B/-----8-----------I-----8--------8-I
G/--------9-----9--I--------9-------I
D/-----------9-----I-----------9----I
A/--7--------------I--7-------------I
E/--7--------------I--7-------------I

  Em*
  Y   SIEMPRE   MIRANDO   AL   SUELO
E/--7--------------I--7-------------I
B/-----8-----------I-----8--------8-I
G/--------9-----9--I--------9-------I
D/-----------9-----I-----------9----I
A/--7--------------I--7-------------I
E/--7--------------I--7-------------I

Am**
LA BARBA SIN AFEITAR DESDE HACE TRES DÍAS YA

E/--5--------------I--5-------------I
B/-----5-----------I-----5--------5-I
G/--------5-----5--I--------5-------I
D/-----------7-----I-----------7----I
A/-----------------I--5-------------I
E/--5--------------I--5-------------I X4

Em*
ENCIENDES UN CIGARRILLO
Em*
NO PARAS DE FUMAR
Am**
LAS NOCHES SON ETERNAS
Am**
DEL DÍA MEJOR NO HABLAR
G
Y EMPIEZAS A PREGUNTARTE
C
POR QUÉ AHORA ESTÁS ASÍ
C
Y EMPIEZAS A PREGUNTARTE
C                D
QUIÉN PIENSA EN TI

CORO
                 G
QUIÉN PIENSA EN TI
G                                D
QUIÉN TE HA ROBADO TU MIRADA FELIZ
D                                     C
QUIÉN TE HA CAMBIADO TU ILUSIÓN POR DOLOR
C                                D
QUIÉN SE HA LLEVADO TU MOMENTO MEJOR
D               G
QUIÉN PIENSA EN TI
G                                D
QUIÉN TE HA ROBADO TU MIRADA FELIZ
D                                     C
QUIÉN TE HA CAMBIADO TU ILUSIÓN POR DOLOR
C                                 D
QUIÉN SE HA LLEVADO TU MOMENTO MEJOR
                Em
QUIÉN PIENSA EN TI

QUIÉN PIENSA EN TI
                G
QUIÉN PIENSA EN TI
                D
QUIÉN PIENSA EN TI

O COMO EN CONCIERTO

QUIEN PIENSA EN TI, QUIEN PIENSA EN TI
E/-----------------------I
B/---------------------3-I
G/------------5----------I
D/---2-------------------I
A/-----------------------I
E/-----------------------I

DESPUES

   E5                             G5  F#5
E/------------------------------I--------I
B/------------------------------I--------I
G/------------------------------I--------I
D/--2--2--X--2--2--X--2--2--X-2-I--5--4--I
A/--2--2--X--2--2--X--2--2--X-2-I--5--4--I
E/--0--0--X--0--0--X--0--0--X-0-I--3--2--I


Em*
NO PIERDES LA ESPERANZA
Em*
DE QUE ALGO DEBE CAMBIAR
Am**
Y PIENSAS QUE YA ES BASTANTE
Am**
NO DEBES SUFRIR MÁS
Em*
NO HAY MAL QUE CIEN AÑOS DURE
Em*
NI QUIÉN LO PUEDA AGUANTAR
Am**
Y SABES QUE TIENES DERECHO A TU FELICIDAD
G                      C
PERO MIENTRAS LLEGA TIENES QUE VIVIR
C
PERO MIENTRAS LLEGA
C                D
QUIÉN PIENSA EN TI

CORO:
                 G
QUIÉN PIENSA EN TI
G                                D
QUIÉN TE HA ROBADO TU MIRADA FELIZ
D                                     C
QUIÉN TE HA CAMBIADO TU ILUSIÓN POR DOLOR
C                                D
QUIÉN SE HA LLEVADO TU MOMENTO MEJOR
D               G
QUIÉN PIENSA EN TI
G                                D
QUIÉN TE HA ROBADO TU MIRADA FELIZ
D                                     C
QUIÉN TE HA CAMBIADO TU ILUSIÓN POR DOLOR
C                                 D
QUIÉN SE HA LLEVADO TU MOMENTO MEJOR
                E 
QUIÉN PIENSA EN TI
QUIÉN PIENSA EN TI
                G
QUIÉN PIENSA EN TI
                D
QUIÉN PIENSA EN TI

O como en concierto

INTRO

CORO

                G
QUIÉN PIENSA EN TI
G                                D
QUIÉN TE HA ROBADO TU MIRADA FELIZ
D                                     C
QUIÉN TE HA CAMBIADO TU ILUSIÓN POR DOLOR
C                                D
QUIÉN SE HA LLEVADO TU MOMENTO MEJOR

D               G
QUIÉN PIENSA EN TI
G                                D
QUIÉN TE HA ROBADO TU MIRADA FELIZ
D                                     C
QUIÉN TE HA CAMBIADO TU ILUSIÓN POR DOLOR
C                                 D
QUIÉN SE HA LLEVADO TU MOMENTO MEJOR

D                G
QUIÉN PIENSA EN TI
G                                D
QUIÉN TE HA ROBADO TU MIRADA FELIZ
D                                     C
QUIÉN TE HA CAMBIADO TU ILUSIÓN POR DOLOR
C                                D
QUIÉN SE HA LLEVADO TU MOMENTO MEJOR

D               G
QUIÉN PIENSA EN TI
G                                D
QUIÉN TE HA ROBADO TU MIRADA FELIZ
D                                     C
QUIÉN TE HA CAMBIADO TU ILUSIÓN POR DOLOR
C                                 D
QUIÉN SE HA LLEVADO TU MOMENTO MEJOR
                E5 G5 F#5
QUIÉN PIENSA EN TI
                E5 G5 F#5
QUIÉN PIENSA EN TI
                E5 G5 F#5 E5
QUIÉN PIENSA EN TI


HAI ESTAN YO CREEO CORRECTO ALGUN ERROR
SEPALON CONPRENDER
UN SALUDO PARA MIS AMIGOS
 FER, MANO, SUSHO, VANNE, KATHY Y EN
 ESPECIAL PARA EL TODO PODEROSO

            
            
Suggest correction
Creating personal tab
Creating personal tab
You can edit any tab online and save it as your Personal.

You can edit, replace or remove any tab part or add personal notes – all changes will be seen only by you.

Personal tabs can be accessed anytime from any device, even offline.
Learn more »
Give kudos to tab author, rate the tab!
1 2 3 4 5
comments
print report bad tab
guest
Wanna post a correction for this tab? Suggest correction