Oops, an error
Loading. Please wait.

Adios Trénida tab

4 views 1 this week
no commentswrite comment
1 2 3 4 5
3 more votes to show rating
add to favorites
×
Save as Personal and add changes to this tab that will be seen only by you. Learn more ›
×
You can save this tab as Personal to edit and correct it or add notes. All changes will be seen only by you. Learn more »
launch autoscroll
font size
0
reset
how to read this tab
guitar tuner
edit
Autoscroll
slow
fast
+/-
esc
set tempo
stop
  Algunas canciones de Chava Flores; Son autenticamente trovadoras.
Y en un esfuerzo por poner las cosas como son.
Pongo mi granito de arena.
Espero que les sea de ayuda, ya que la saque un dia que estaba
bien tomado y  ademas, decepcionado.


   E         G#m   Gm   FA#m        B7
e-------0--0----4----3-------2----------2---0-
B-------0--0----4----3-------2----------2---0-
G----1-----0----4----3----2----------2------0-
D----------0--------------------------------0-
A-------------------------------4--2----------
E--0----------4----3----2---------------------

   E         G#m   Gm   FA#m       B7
e-------0--0----4----3-------2----------2---0-
B-------0--0----4----3-------2----------2---0-
G----1-----0----4----3----2----------2------0-
D----------0--------------------------------0-
A----------------------------- -4--2----------
E--0----------4----3----2---------------------


  E                               E
e---0-----0-----0---0----0--------0-
B-----0-----0---------0----0---0--0-
G-------1-----1---------1----1----1-
D---------------------------------2-
A---------------------------------2-
E-0---------------0---------------0-


Fui por Trenida
                    E   E  E6 E6 E6 E E6  E        E
                e------------------------------------
                B---0---0--2--2--2--0--2--0--------0-
                G---1---1--1--1--1--1--1--1--------1-
                D---2---2--2--2--2--2--2--2--------2-
                A----------------------------4--2--2-
                E-0--------------------------------0-

Y llegue en mi ?becicleta?; Al zaguan de aquella inquieta?
                    E       FA#m                  G#m       Gm
                  e-----0-------2---------------------4-------3-
                  B-----0-------2---------------------4-------3-
                  G---1-------2---------------------4---------3-
                  D---------------------------------------------
                  A---------------------------------------------
                  E-0-----0-2----2--------------2/4-----4/3-----

Vecinda
           FA#m           B7            B7
         e---2-----2-------2------------2--
         B-----2-----2------------0-----0-
         G-------2------2-------2---2---2-
         D-----------------4------------1-
         A--------------------2---------2-
         E-2------------------------------


Y ahí le chifle                   [Silbido] ¿Cuántos heramos Guey?
                  FA#m
                e----------3-----3--------------------------------
                B-----2--------2----------------------------------
                G---2---2----2------------------------------------
                D-------------------------------------------------
                A-------------------------------------------------
                E-2-----------------------------------------------

Yo jamas le he pedaleado ningun triciclo, así que vayamos respetando?


Y salio como balazo          Ha, ha brindarme un tierno abrazo y?
               FA#m              B7                            B7
             e---3-----3-----3---------------------------------2-
             B-----2-----2------------------0------------------0-
             G-------2-----2----------2-----------2------------2-
             D-------------------------------------------------1-
             A-------------------2-----------------------------2-
             E-2-----------------------------------------------0-

Que hiciste, que hiciste hey?...Y la bese aaaaaaay.

                               E    E  E6 E  E6 E  E6 E  E6 E  E
                             e---0--0--0--0--0--0--0--0--0--0--0-
                             B---0--0--2--2--2--0--2--0--2--0--0-
                             G---1--1--1--1--1--1--1--1--1--1--1-
                             D---------2--2--2--2--2--2--2--2--2-
                             A---------2--2--2--2--2--2--2--2--2-
                             E-0----------------------------0--2-


Me dijo:-¡que tal!                                  Yo le dije:

                   E  E  E6 E6 E6 E  E6       E  E6
               E---0--0--0--0--0--0--0--------0--0--------------0-
               B---0--0--2--2--2--0--2--------0--2--------------0-
               G---1--1--1--1--0--2--1------1-1--1--------------1-
               D--------------------------2------2----------------
               A------------------------2--------2----------------
               E--0------------------------------0------------0---

Ya tanteando
               E     E       E     E
            e----0----0----0---0-----0---0-
            B----0----0----0---0-----0---0-
            G----1----1----1---1-----1---1-
            D-----------2--------------2---
            A--------2-------------2-------
            E--0---0---------0---0---------

Ahí nomás la voy pasando

                    E7          E7
              e--------0-----0-----0-
              B--------3-----3-----3-
              G--------1-----1-----1-
              D-----------2----------
              A-----2-----------2----
              E--0-------------------

Como ha estado tu Papá
                        A         A                    A
                     E------------5-----5------------5--5--
                     B------2---2---5----------5---5----5--
                     G----2---2-------6------6---6------6--
                     D----------------------------------7--
                     A--0------------------7------------7--
                     E----------------------------------5-
Que? Hummm, que?
Y entonces hablo
                       A        A        A  A  A  A  A
                 e----0------0-----0-----0--0--0--0--0-0-0--0-----
                 B----2------2-----2-----2--2--2--2--2--2--2--2---
                 G----2------2-----2-----2--2--2--2--2---2---2--2-
                 D--------------2-----------2--2--2--2-----2---2--
                 A--------0----------------------------------0--0-
                 E--0---0-------------0-----0--0--0--0------------

Quiero decirte una cosa
                        E                             C#7
                     E-----0-------0-------------------4-
                     B-------0-------0------------6----6-
                     G---------1-------1--------4---4--4-
                     D---------------------------------4-
                     A-----------0--------0/4----------4-
                     E--0------------------------------4-

Que ahora voy a ser la esposa
                           FA#m                         B7
                        E----2------2--2----------------2---------
                        B------2---------2----------0---0---------
                        G--------2---------2------2--2--2---------
                        D-------------------------------1---------
                        A-----------4---------0/2-------2-0-0-1/2-
                        E-2-----------------------------0---------

De Zenón el de los caldos, que ayer se me declaro
       FA#m                                      E
E------------2---------------3---------------------0-----------0--
B--------2--------2---2---2--------------------------0-------0----
G------2---2----2---2---2------------------------------1---1------
D-----------------------------------------------------------------
A--------------------------------------------------------0--------
E------------------------------------------------0----------------

Te cambio por una pechuga ah, ah
                                                     E  E
                                E----0-----0---------0--0--
                                B------0-----0----0--0--0--
                                G--------1-----1-----1--1--
                                D--------------------2--2--
                                A--------------------2--2--
                                E--0-----------------0--0--

Que poca Mamá

                          E  E6 E  E6 E  E6 E  E6 E  E
                      e---0--0--0--0--0--0--0--0--0--0-
                      B---0--2--2--2--0--2--0--2--0--0-
                      G---1--1--1--1--1--1--1--1--1--1-
                      D------2--2--2--2--2--2--2--2--2-
                      A------2--2--2--2--2--2--2--2--2-
                      E-0----------------------------0-

Agarre la ?becileta? y le di con la cubeta sin...Parar

             E       FA#      G#m        FA#m                 B7
           e-----0--------2--------4-------2-----2------------2
           B-----0--------2--------4---------2-----2---2---0--0
           G---1-------2---------4-------------2-----2----2-0-2
           D--------------------------------------------------1
           A-------------------------------------4-------2----2
           E-0-----0-2------2/4------4-3-2--------------------0

Llego el velador
                  FA#m                       B7
                e---2-----2------2-----------2-
                B-----2-----2-----------0----0-
                G-------2-----2-------2---2--2-
                D----------------------------1-
                A---------4---------2--------2-
                E-2--------------------------0-

Yo ya estaba arrepentido         de llegar en ?becicleta? y
                         FA#m                   B7
                       e---2-----2------2-------2-
                       B-----2-----2------------0-
                       G-------2-----2-------2--2-
                       D------------------------1-
                       A---------4---------2----2-
                       E-2----------------------0-

Y no en ?traitor?

                               E6 E  E6 E  E6 E  E6 E  E
                      e--0-----0--0--0--0--0--0--0--0--0-
                      B----0---2--2--2--0--2--0--2--0--0-
                      G------1-1--1--1--1--1--1--1--1--1-
                      D--------2--2--2--2--2--2--2--2--2-
                      A--------2--2--2--2--2--2--2--2--2-
                      E-0------------------------------0-

Al bote fui a dar (no llores, no llores, no llores)
                                                 E
                E---0-----0-----0-------------0--0-
                B-----0-----0------------0----0--0-
                G-------1-----1--------1---1--1--1-
                D--------------------------------2-
                A--------------------0-----------2-
                E-0----------------0-------------0-

Hay le di lana a los jueces              y salí a los cuatro meses
                           E             E7                E7
                         E---0-----0--------------0--------0
                         B-----0-----0---------0------3----3
                         G-------1-----1-----1--1---1---1--1
                         D-----------------0---------------0-
                         A---------------2-----------------2-
                         E-0---------------------------------
Ella aún en el hospital
                                                             A
                         e-------------5------5------------5-5-5-
                         B-------2---2---5-----------5---5---5-5-
                         G-----2---2-------6-------6---6-----6-6-
                         D-------------------------------------7-
                         A-----------------------7-------------7-
                         E-0-------------------------------------

De entonces pa´aca?          Me he dado a las deceiciones
        A       A    A    A A                         C#7
      e---0-----0----0---0--0-------------------------4-
      B---2-----2----2---2--2----2----2----------6----6-
      G---2-----2----2---2--2--2----2----------4---4--4-
      D-------2----2-----2--2-------------------------4-
      A-0----0-----------0--0------------0---4--------4-
      E-----------------------------------------------4-

Por eso hago canciones               Pa´acordarme de esa ingrata
                   FA#m                                        B7
                 e---2-----2-----2------------2----------------2-
                 B-----2-----2------------2---------------2----0-
                 G-------2-----2--------0---0-----------0---0--2-
                 D---------------------------------------------1-
                 A---------4--------0-2---------0-0-1-2--------2-
                 E-2---------------------------------------------

Y tambien de su Mamá
                             E
                    E--0-----0-0-0-0-0-0---0
                    B----0---0-0-0-0-0-0---0
                    G------0-1-1-1-1-1-1---1
                    D--------2-2-2-2-2-2---2
                    A--------2-2-2-2-2-2---2
                    E-0------0-0-0-0-0-0---0
  C (Tremolo)     E
Adios         Trenidad

Quiero disculparme si algunos tonos no son los mismos que la canción,
es porque mi guitarra es muy sencilla, y por mas que la afine,
 pues no daba, aún así hay  sea por la Música.
Saludos a la Familia Cuatzo.
Ya que ni ellos saben que toco estas canciones.

Por favor, para cualquier comentario escribanme a mi correo:
planeta72@
De momento, seguiremos viendonos con chava flores.

            
            
Suggest correction
Creating personal tab
Creating personal tab
You can edit any tab online and save it as your Personal.

You can edit, replace or remove any tab part or add personal notes – all changes will be seen only by you.

Personal tabs can be accessed anytime from any device, even offline.
Learn more »
Give kudos to tab author, rate the tab!
1 2 3 4 5
comments
print report bad tab
guest
Wanna post a correction for this tab? Suggest correction