Oops, an error
Loading. Please wait.

Efecto Dominó chords

by Chetes
248 views 3 this week
no commentswrite comment
1 2 3 4 5
x 3
add to favorites
×
Save as Personal and add changes to this tab that will be seen only by you. Learn more ›
×
You can save this tab as Personal to edit and correct it or add notes. All changes will be seen only by you. Learn more »
launch autoscroll
font size
0
reset
transpose
0
reset
display chords
guitar tuner
edit
Autoscroll
slow
fast
+/-
esc
set tempo
stop
Strumming
There is no strumming pattern for this song yet. and get +5 IQ
  ACORDES:
   E D?? D  Bm  G  C  G#  A#
e----------------------------
B-----5------3---------------
G--1--7--7---4--4--4---5-----
D--2--6--7---4--5--4---6---8-
A--2--X--5---2--5--3---6---8-
E-----5--5---2--3--3---4---6-

------------------


    intro
    D      D??
e--------------------------
B----------5---------------
G---7------7---------------
D---7------6---------------
A---x------X----------------
E---5------5---------------

 estar en control solo es una idea
    D
e---------------------------
B---------------------------
G---7-----------------------
D---7-----------------------
A---x-----------------------
E---5-----------------------

 que te hace sentir feliz
     D??
e---------------------------
B----5----------------------
G----7----------------------
D----6----------------------
A----x----------------------
E----5----------------------

mi preocupacion solo me envenena
    D
e---------------------------
B---------------------------
G---7-----------------------
D---7-----------------------
A---x-----------------------
E---5-----------------------

no hay forma de predecir
     D??            G
e---------------------------
B----5--------------3-------
G----7--------------4-------
D----6--------------5-------
A----x--------------5-------
E----5--------------3-------

que sera de mi
    G        D       C

que sera de mi
   C         Bm     G

Coro:

parece que todo se dio
    D

en automatico
   E


como un efecto domino
   G


asi como llega el amor
    D


sin anticipacion
   E


como un efecto domino
   G


Verso:

en cada carretera hay una desviacion
    D
e---------------------------
B---------------------------
G---7-----------------------
D---7-----------------------
A---x-----------------------
E---5-----------------------

te toman por sorpresa y pierdes el control
     D??
e---------------------------
B----5----------------------
G----7----------------------
D----6----------------------
A----x----------------------
E----5----------------------

eventos en cadena cambiando sin razon
    D
e---------------------------
B---------------------------
G---7-----------------------
D---7-----------------------
A---x-----------------------
E---5-----------------------

y es cuando te preguntas
     D??
e---------------------------
B----5----------------------
G----7----------------------
D----6----------------------
A----x----------------------
E----5----------------------

que es lo que sera de ti
    G        D       C


que sera de ti
   C         Bm     G


Coro:

parece que todo se dio
    D

en automatico
   E


como un efecto domino
   G


asi como llega el amor
    D


sin anticipacion
   E


como un efecto domino
   G


mira hacia donde te llevo
    D


como un efecto domino
   E               G


     Bm           E


                    hacia donde me
     Bm           E


   llevara          hacia donde me
     Bm           E


   llevara          hacia donde me
     Bm           E


   llevara  me llevara
      G      G#


parece que todo se dio
    D


en automatico
   E


como un efecto domino
   G


asi como llega el amor
    D


sin anticipacion
   E


como un efecto domino
   G


mira hacia donde te llevo
    D


mira hacia donde te llevo
   E

como un efecto domino
   G

como un efecto domino
   G#        A#

me gusta mucho efecto domino
el disco esta muy bueno...
se la dedico a todas las personas
que con un acto se les genera
una situacion de gran magnitud
ya sea buena o mala...
nuestros actos siempre van seguidos
de una consecuencia inevitable....

            
            
Suggest correction
Creating personal tab
Creating personal tab
You can edit any tab online and save it as your Personal.

You can edit, replace or remove any tab part or add personal notes – all changes will be seen only by you.

Personal tabs can be accessed anytime from any device, even offline.
Learn more »
Give kudos to tab author, rate the tab!
1 2 3 4 5
comments
print report bad tab
guest
Wanna post a correction for this tab? Suggest correction