Oops, an error
Loading. Please wait.

Canción Del Mariachi tab

version 1
version 1

Interactive

50,346 views 54 this week
no commentswrite comment
1 2 3 4 5
1 last vote to show rating
add to favorites
×
Save as Personal and add changes to this tab that will be seen only by you. Learn more ›
×
You can save this tab as Personal to edit and correct it or add notes. All changes will be seen only by you. Learn more »
launch autoscroll
font size
0
reset
how to read this tab
guitar tuner
edit
Autoscroll
slow
fast
+/-
esc
set tempo
stop
Author
Song Title: Cancion Del Mariachi
Artist: Los Lobos With Antonio Banderas
Album Title: Desperado The Soundtrack

[Intro]
e|-------7-7-7-7-8-7-7-7-8-7-7-------|-----5-5-5-5-7-5-5-5-7-5-5------|
B|-----8-8-8-8-8-8-8-8-8-8-8-8-8-10--|-----7-7-7-7-7-7-7-7-7-7-7-7-8--|
G|---9-------------------------9-11--|---7-----------------------8-9--|
D|-9---------------------------------|-7------------------------------|
A|-----------------------------------|--------------------------------|
E|-----------------------------------|--------------------------------|
                                   B                                Em
[Verse 1]
Em                                           B
Soy un hombre muy honrado, Que me gusta lo mejor
                                              Em
A mujeres no me faltan, Ni al dinero, ni el amor.

[Verse 2]
Em                                     B
...En mi caballo, Por la sierra yo me voy
                                               Em
Las estrellas y la luna, Ellas me dicen donde voy.

[Chorus]
Am           Em
Ay, ay, ay, ay
B            Em
Ay, ay, mi amor
Am         Em
Ay, mi morena
B          Em
De mi corazon

(Repeate Intro.)

[Verse 3]
Em                                           B
Me gusta tocar guitarra, me gusta cantar el sol
                                          Em
Mariachi me acompana, quando canto my cancion.

[Verse 4]
Em                                             B
Me gustan tomar mis copas, aguardiente es lo mejor
                                               Em
Tanbien la tequilla blanca, con cu sal le da sabor.

[Chorus]
Am           Em
Ay, ay, ay, ay
B            Em
Ay, ay, mi amor
Am         Em
Ay, mi morena
B          Em
De mi corazon
 
[Solo]
e|--------------12---------------------11-------------------------------|
B|----12-----12----12----12--------12------12--10--12-------------------|
G|-9------12----------12------------------------------------------------|
D|---------------------------9------------------------9-----------------|
A|----------------------------------------------------------------------|
E|----------------------------------------------------------------------|

e|----11------------------12-----------------12-------------------------|
B|-12----12-10-12------12----12----12-----12----12----12----------------|
G|------------------------------12-----------------12-------------------|
D|-----------------9------------------9------------------9--------------|
A|----------------------------------------------------------------------|
E|----------------------------------------------------------------------|

e|----11----------------|--11-------------------------12--------------12-|
B|-12----12-10-12--------------10--12--------10-12-------------12--------|
G|----------------------------------------------------------12-----------|
D|-----------------9--------------------9-----------9--------------9-----|
A|-----------------------------------------------------------------------|
E|-----------------------------------------------------------------------|

e|-----------12---|---------10----10---8------8---7---7---5---5--3--3---|
B|-----12----------------12----12---------10--------8-------7------5----|
G|-12-----------------12------------------------------------------------|
D|---------9------------------------------------------------------------|
A|----------------------------------------------------------------------|
E|----------------------------------------------------------------------|

e|-2---3---0---0--------------------------------------------------------|
B|---3-------0----3--0--1--0--------------------------------------------|
G|-------------------------------4-----2--4--5-4-2-------2--------------|
D|-------------------------------------------------5-4-----5-4-2-~~~----|
A|-------------------------------------------------------------------2--|
E|----------------------------------------------------------------------|

e|----------------------------------------------------------------------|
B|----------------------------------------------------------------------|
G|-------8--9--11----------10--11--12-----------8--9--11----------------|
D|-9--9--------------9--9-----------------9--9-------------9------------|
A|----------------------------------------------------------------------|
E|----------------------------------------------------------------------|

e|---7--5--3--2--0------------------------------------------------------|
B|----------------------------------------------------------------------|
G|---8--5--4--2--0------------------------------------------------------|
D|----------------------------------------------------------------------|
A|----------------------------------------------------------------------|
E|----------------------------------------------------------------------|
 
[Verse 5]
N.C.
Me gusta tocar guitarra, me gusta cantar el sol
                                          Em
Mariachi me acompana, quando canto my cancion.

[Verse 6]
Em                                             B
Me gustan tomar mis copas, aguardiente es lo mejor
                                               Em
Tanbien la tequilla blanca, con cu sal le da sabor.

[Chorus]
Am           Em
Ay, ay, ay, ay
B            Em
Ay, ay, mi amor
Am         Em
Ay, mi morena
B          Em
De mi corazon
Am           Em
Ay, ay, ay, ay
B            Em
Ay, ay, mi amor
Am         Em
Ay, mi morena
B          Em
De mi corazon
 
************************************

| ~  Vibrato

************************************
Suggest correction
Creating personal tab
Creating personal tab
You can edit any tab online and save it as your Personal.

You can edit, replace or remove any tab part or add personal notes – all changes will be seen only by you.

Personal tabs can be accessed anytime from any device, even offline.
Learn more »
Give kudos to tab author, rate the tab!
1 2 3 4 5
comments
print report bad tab
guest
You may want to rate the tab now too:
select rating
Wanna post a correction for this tab? Suggest correction