Oops, an error
Loading. Please wait.

Nena tab

10 views 1 this week
no commentswrite comment
1 2 3 4 5
3 more votes to show rating
add to favorites
×
Save as Personal and add changes to this tab that will be seen only by you. Learn more ›
×
You can save this tab as Personal to edit and correct it or add notes. All changes will be seen only by you. Learn more »
launch autoscroll
font size
0
reset
how to read this tab
guitar tuner
edit
Autoscroll
slow
fast
+/-
esc
set tempo
stop
La mejor banda que ha dado el paisito. La verdad que es la primer cosa
que saco de oído, seguramente le erré en algo y me faltó otro tanto,
pero ahí estaría lo básico.
Ah, faltó el solo.


Intro:

1er guitarra:
----7b--7b-------7b---7--0----------0--7b-----------------
----10b-10b------10b--7--0--------0----10b----------------
----------------------------------------------------------
----------------------------------------------------------
----------------------------------------------------------
----------------------------------------------------------

--7b--7---7b--7---7b--7---7b--7---7b----7--0----------0--7b----
--10b-----10b-----10b-----10b-----10b---7--0--------0----10b---
---------------------------------------------------------------
---------------------------------------------------------------
---------------------------------------------------------------
---------------------------------------------------------------


2da:
   G G A E         G G A E
----------------------------------------------------------
----------------------------------------------------------
----------------------------------------------------------(x8)
---5-5-7-2-2-2-2-2-5-5-7-2-2-2-2-2------------------------
---5-5-7-2-2-2-2-2-5-5-7-2-2-2-2-2------------------------
---3-3-5-0-0-0-0-0-3-3-5-0-0-0-0-0------------------------


E                    GGA
Ella no quiere salir
E                    GGA
no tiene a donde ir
E                    N.C.
las amigas que tenía ya le aburrieron

Hay una fiesta allá mamá
pero no tengo un jean
qué van a decir si voy de la cara

E               G
Lo que te falta nena
      A
es un poco de polenta más
    B
en esa cabeza

E
Nena, nena,
 G           A
nena no me hagás reír
E
Nena, nena,
 G          A     B
nena no me hagás reír,    no

E                    GGA
Se ve que no conocés
E             GGA
el vientre
E            N.C.
porque nunca te la metieron bien

Si algún día te sentís
sola
vení que te voy a atravesar

Nena, nena,
nena no me hagás sufrir
Nena, nena,
nena no me hagás sufrir,  no

Nena, nena,
nena no me hagás sufrir
Nena, nena,
nena no me hagás sufrir
Nena, nena,
nena no me hagás sufrir
Nena, nena,
nena no me hagás sufrir
Nena, nena,
nena no me hagás sufrir
Nena, nena,
nena no me hagás sufrir, no
no me hagás sufrir


*La letra es lo que logré entender atrás de la distorsión
y el mal sonido del cassette. Bienvenida cualquier corrección!

            
            
Suggest correction
Creating personal tab
Creating personal tab
You can edit any tab online and save it as your Personal.

You can edit, replace or remove any tab part or add personal notes – all changes will be seen only by you.

Personal tabs can be accessed anytime from any device, even offline.
Learn more »
Give kudos to tab author, rate the tab!
1 2 3 4 5
comments
print report bad tab
guest
Wanna post a correction for this tab? Suggest correction