Oops, an error
Loading. Please wait.

Amiga Mía bass

version 1
version 1

Whole song

Interactive

by Chinoy
22 views 3 this week
no commentswrite comment
1 2 3 4 5
3 more votes to show rating
add to favorites
×
Save as Personal and add changes to this tab that will be seen only by you. Learn more ›
×
You can save this tab as Personal to edit and correct it or add notes. All changes will be seen only by you. Learn more »
launch autoscroll
font size
0
reset
guitar tuner
edit
Autoscroll
slow
fast
+/-
esc
set tempo
stop
    intro
F#||-- ----|-------|-------|------------|--------------------------|
C#||-------|-------|-------|------------|--------5--------7--5-----|
G#||-------|-------|-------|---------5--|--7--7-----7--7--------7--|
D#||-------|-------|-------|------------|--------------------------|


--------------------------|--------------------------|
--------5--------5-----7--|--------5--------7--5-----|
--7--7-----7--3-----5-----|--7--7-----7--7--------7--|
--------------------------|--------------------------|

                           estrofa
--------------------------|--------------------------|
--------5--------5-----7--|--------5--------7--5-----|
--7--7-----7--3-----5-----|--7--7-----7--7--------7--|
--------------------------|--------------------------|


--------------------------|--------------------------|
--------5--------5-----7--|--------5--------7--5-----|
--7--7-----7--3-----5-----|--7--7-----7--7--------7--|
--------------------------|--------------------------|


--------------------------|--------------------------|
--------5--------5-----7--|--------5--------7--5-----|
--7--7-----7--3-----5-----|--7--7-----7--7--------7--|
--------------------------|--------------------------|


--------------------------|--------------------------|
--------5--------5-----7--|--------5--------7--5-----|
--7--7-----7--3-----5-----|--7--7-----7--7--------7--|
--------------------------|--------------------------|

                           precoro
--------------------------|-----------------------|-----------------------|
--------5--------5-----7--|--------------7--5-----|--------------7--5-----|
--7--7-----7--3-----5-----|--7--7--------------7--|--7--7--------------7--|
--------------------------|--------5--5-----------|--------5--5-----------|


-----------------------|-----------------------|-----------------------|
--------------7--5-----|--------------7--5-----|--------------7--5-----|
--7--7--------------7--|--7--7--------------7--|--7--7--------------7--|
--------5--5-----------|--------5--5-----------|--------5--5-----------|


-----------------------|-----------------------|-----------------------|
--------------7--5-----|--------------7--5-----|--------------7--5-----|
--7--7--------------7--|--7--7--------------7--|--7--7--------------7--|
--------5--5-----------|--------5--5-----------|--------5--5-----------|

coro
--------------------|--------------------------|
-----------2--------|--------4-----7--5--4-----|
--3--3--3-----3--5--|--L--5-----5-----------5--|
--------------------|--------------------------|


----------12----------14--12------|----------12----------12------14--|
--14--14------14--14----------14--|--14--14------14--10------12------|
----------------------------------|----------------------------------|
----------------------------------|----------------------------------|


--------------------|--------------------------|--------------------------|
-----------2--------|--------4-----7--5--4-----|--------5--------7--5-----|
--3--3--3-----3--5--|--L--5-----5-----------5--|--7--7-----7--7--------7--|
--------------------|--------------------------|--------------------------|


--------------------------|--------------------|---------------------5S-7-|
--------5--------5-----7--|-----------2--------|---------4---5---7--------|
--7--7-----7--3-----5-----|--3--3--3-----3--5--|--L--5--------------------|
--------------------------|--------------------|--------------------------|


--5------5--7--5--------|------------------------|--------------------|
------------------7--5--|--L--4---5---7---5---4--|-----------2--------|
------------------------|------------------------|--3--3--3-----3--5--|
------------------------|------------------------|--------------------|


--------------------------|--------------------------|
--------4-----7--5--4-----|--------5--------7--5-----|
--L--5-----5-----------5--|--7--7-----7--7--------7--|
--------------------------|--------------------------|


--------------------------|--------------------------|
--------5--------5-----7--|--------5--------7--5-----|
--7--7-----7--3-----5-----|--7--7-----7--7--------7--|
--------------------------|--------------------------|

                           estrofa
--------------------------|--------------------------|
--------5--------5-----7--|--------5--------7--5-----|
--7--7-----7--3-----5-----|--7--7-----7--7--------7--|
--------------------------|--------------------------|


--------------------------|--------------------------|
--------5--------5-----7--|--------5--------7--5-----|
--7--7-----7--3-----5-----|--7--7-----7--7--------7--|
--------------------------|--------------------------|


--------------------------|--------------------------|
--------5--------5-----7--|--------5--------7--5-----|
--7--7-----7--3-----5-----|--7--7-----7--7--------7--|
--------------------------|--------------------------|


--------------------------|--------------------------|
--------5--------5-----7--|--------5--------7--5-----|
--7--7-----7--3-----5-----|--7--7-----7--7--------7--|
--------------------------|--------------------------|

                           precoro
--------------------------|-----------------------|-----------------------|
--------5--------5-----7--|--------------7--5-----|--------------7--5-----|
--7--7-----7--3-----5-----|--7--7--------------7--|--7--7--------------7--|
--------------------------|--------5--5-----------|--------5--5-----------|


-----------------------|-----------------------|-----------------------|
--------------7--5-----|--------------7--5-----|--------------7--5-----|
--7--7--------------7--|--7--7--------------7--|--7--7--------------7--|
--------5--5-----------|--------5--5-----------|--------5--5-----------|


-----------------------|-----------------------|-----------------------|
--------------7--5-----|--------------7--5-----|--------------7--5-----|
--7--7--------------7--|--7--7--------------7--|--7--7--------------7--|
--------5--5-----------|--------5--5-----------|--------5--5-----------|

coro
--------------------|--------------------------|
-----------2--------|--------4-----7--5--4-----|
--3--3--3-----3--5--|--L--5-----5-----------5--|
--------------------|--------------------------|


----------12----------14--12------|----------12----------12------14--|
--14--14------14--14----------14--|--14--14------14--10------12------|
----------------------------------|----------------------------------|
----------------------------------|----------------------------------|


--------------------|--------------------------|--------------------------|
-----------2--------|--------4-----7--5--4-----|--------5--------7--5-----|
--3--3--3-----3--5--|--L--5-----5-----------5--|--7--7-----7--7--------7--|
--------------------|--------------------------|--------------------------|


--------------------------|--------------------|---------------------5S-7-|
--------5--------5-----7--|-----------2--------|---------4---5---7--------|
--7--7-----7--3-----5-----|--3--3--3-----3--5--|--L--5--------------------|
--------------------------|--------------------|--------------------------|


--5------5--7--5--------|------------------------|--------------------|
------------------7--5--|--L--4---5---7---5---4--|-----------2--------|
------------------------|------------------------|--3--3--3-----3--5--|
------------------------|------------------------|--------------------|

--------------------------|--------------------------|
--------4-----7--5--4-----|--------5--------7--5-----|
--L--5-----5-----------5--|--7--7-----7--7--------7--|
--------------------------|--------------------------|


--------------------------|--------------------------|
--------5--------5-----7--|--------5--------7--5-----|
--7--7-----7--3-----5-----|--7--7-----7--7--------7--|
--------------------------|--------------------------|


--------------------------|--------------------------|
--------5--------5-----7--|--------5--------7--5-----|
--7--7-----7--3-----5-----|--7--7-----7--7--------7--|
--------------------------|--------------------------|


--------------------------|--------------------------|
--------5--------5-----7--|--------5--------7--5-----|
--7--7-----7--3-----5-----|--7--7-----7--7--------7--|
--------------------------|--------------------------|


                           puente
--------------------------|---------------------|-----------------------|
--------5--------5-----7--|---------------------|-----------------------|
--7--7-----7--3-----5-----|--7---7---7--5----3--|--L--3--3--3--3--5--5--|
--------------------------|---------------------|-----------------------|


--------------------------|---------------------------------|
--------5-----------7-----|----------9--------------10------|
--7--7-----7--9--9-----9--|--10--10-----10--12--12------12--|
--------------------------|---------------------------------|


---------------------|-----------------------|--------------------------|
---------------------|-----------------------|--------5-----------7-----|
--7---7---7--5----3--|--L--3--3--3--3--5--5--|--7--7-----7--9--9-----9--|
---------------------|-----------------------|--------------------------|


---------------------------------|
----------9--------------10------|
--10--10-----10--12--12------12--|
---------------------------------|

coro
--------------------|--------------------------|
-----------2--------|--------4-----7--5--4-----|
--3--3--3-----3--5--|--L--5-----5-----------5--|
--------------------|--------------------------|


----------12----------14--12------|----------12----------12------14--|
--14--14------14--14----------14--|--14--14------14--10------12------|
----------------------------------|----------------------------------|
----------------------------------|----------------------------------|


--------------------|--------------------------|--------------------------|
-----------2--------|--------4-----7--5--4-----|--------5--------7--5-----|
--3--3--3-----3--5--|--L--5-----5-----------5--|--7--7-----7--7--------7--|
--------------------|--------------------------|--------------------------|


--------------------------|--------------------|---------------------5S-7-|
--------5--------5-----7--|-----------2--------|---------4---5---7--------|
--7--7-----7--3-----5-----|--3--3--3-----3--5--|--L--5--------------------|
--------------------------|--------------------|--------------------------|


--5------5--7--5--------|------------------------|--------------------|
------------------7--5--|--L--4---5---7---5---4--|-----------2--------|
------------------------|------------------------|--3--3--3-----3--5--|
------------------------|------------------------|--------------------|


--------------------------|--------------------------|
--------4-----7--5--4-----|--------5--------7--5-----|
--L--5-----5-----------5--|--7--7-----7--7--------7--|
--------------------------|--------------------------|


--------------------------|--------------------------|
--------5--------5-----7--|--------5--------7--5-----|
--7--7-----7--3-----5-----|--7--7-----7--7--------7--|
--------------------------|--------------------------|


--------------------------|--------------------------|
--------5--------5-----7--|--------5--------7--5-----|
--7--7-----7--3-----5-----|--7--7-----7--7--------7--|
--------------------------|--------------------------|


--------------------------|--------------------------|
--------5--------5-----7--|--------5--------7--5-----|
--7--7-----7--3-----5-----|--7--7-----7--7--------7--|
--------------------------|--------------------------|


--------------------------|-------------------|--------------------||
--------5--------5-----7--|-------------------|--------------------||
--7--7-----7--3-----5-----|--7----------------|--7-----------------||
--------------------------|-------------------|--------------------||

            
            
Suggest correction
Creating personal tab
Creating personal tab
You can edit any tab online and save it as your Personal.

You can edit, replace or remove any tab part or add personal notes – all changes will be seen only by you.

Personal tabs can be accessed anytime from any device, even offline.
Learn more »
Give kudos to tab author, rate the tab!
1 2 3 4 5
comments
print report bad tab
guest
Wanna post a correction for this tab? Suggest correction