Oops, an error
Loading. Please wait.

Amiga Mía tab

version 1
version 1

Whole song

Interactive

by Chinoy
33 views 1 this week
no commentswrite comment
1 2 3 4 5
3 more votes to show rating
add to favorites
×
Save as Personal and add changes to this tab that will be seen only by you. Learn more ›
×
You can save this tab as Personal to edit and correct it or add notes. All changes will be seen only by you. Learn more »
launch autoscroll
font size
0
reset
how to read this tab
guitar tuner
edit
Autoscroll
slow
fast
+/-
esc
set tempo
stop
    intro
D#||--------------------------|--------------------------|
A#||--------------------------|--------------------------|
F#||--------0-----------------|--------0-----------------|
C#||--2--2--2--2--2--7--5-----|--2--2--2--2-----5-----7--|
G#||--2--2--2--2--2--------7--|--2--2--2--2--3-----5-----|
D#||--0--0--0--0--0-----------|--0--0--0--0--------------|


--------------------------|--------------------------|
--------------------------|--------------------------|
--------0-----------------|--------0-----------------|
--2--2--2--2--2--7--5-----|--2--2--2--2-----5-----7--|
--2--2--2--2--2--------7--|--2--2--2--2--3-----5-----|
--0--0--0--0--0-----------|--0--0--0--0--------------|


--------------------------|--------------------------|
--------------------------|--------------------------|
--------0-----------------|--------0-----------------|
--2--2--2--2--2--7--5-----|--2--2--2--2-----5-----7--|
--2--2--2--2--2--------7--|--2--2--2--2--3-----5-----|
--0--0--0--0--0-----------|--0--0--0--0--------------|


--------------------------|--------------------------|
--------------------------|--------------------------|
--------0-----------------|--------0-----------------|
--2--2--2--2--2--7--5-----|--2--2--2--2-----5-----7--|
--2--2--2--2--2--------7--|--2--2--2--2--3-----5-----|
--0--0--0--0--0-----------|--0--0--0--0--------------|

estrofa
--------------------------|--------------------------|
--------------------------|--------------------------|
--------0-----------------|--------0-----------------|
--2--2--2--2--2--7--5-----|--2--2--2--2-----5-----7--|
--2--2--2--2--2--------7--|--2--2--2--2--3-----5-----|
--0--0--0--0--0-----------|--0--0--0--0--------------|


--------------------------|--------------------------|
--------------------------|--------------------------|
--------0-----------------|--------0-----------------|
--2--2--2--2--2--7--5-----|--2--2--2--2-----5-----7--|
--2--2--2--2--2--------7--|--2--2--2--2--3-----5-----|
--0--0--0--0--0-----------|--0--0--0--0--------------|


--------------------------|--------------------------|
--------------------------|--------------------------|
--------0-----------------|--------0-----------------|
--2--2--2--2--2--7--5-----|--2--2--2--2-----5-----7--|
--2--2--2--2--2--------7--|--2--2--2--2--3-----5-----|
--0--0--0--0--0-----------|--0--0--0--0--------------|


--------------------------|--------------------------|
--------------------------|--------------------------|
--------0-----------------|--------0-----------------|
--2--2--2--2--2--7--5-----|--2--2--2--2-----5-----7--|
--2--2--2--2--2--------7--|--2--2--2--2--3-----5-----|
--0--0--0--0--0-----------|--0--0--0--0--------------|

precoro
-------------------------|-------------------------|
-------------------------|-------------------------|
-------------------------|-------------------------|
--2----2--0--0--7--7--7--|--2----2--0--0--7--7--7--|
--2----2--0--0--7--7--7--|--2----2--0--0--7--7--7--|
--0----0--------5--5--5--|--0----0--------5--5--5--|


-------------------------|-------------------------|
-------------------------|-------------------------|
-------------------------|-------------------------|
--2----2--0--0--7--7--7--|--2----2--0--0--7--7--7--|
--2----2--0--0--7--7--7--|--2----2--0--0--7--7--7--|
--0----0--------5--5--5--|--0----0--------5--5--5--|

-------------------------|-------------------------|
-------------------------|-------------------------|
-------------------------|-------------------------|
--2----2--0--0--7--7--7--|--2----2--0--0--7--7--7--|
--2----2--0--0--7--7--7--|--2----2--0--0--7--7--7--|
--0----0--------5--5--5--|--0----0--------5--5--5--|

-------------------------|-------------------------|
-------------------------|-------------------------|
-------------------------|-------------------------|
--2----2--0--0--7--7--7--|--2----2--0--0--7--7--7--|
--2----2--0--0--7--7--7--|--2----2--0--0--7--7--7--|
--0----0--------5--5--5--|--0----0--------5--5--5--|

coro
------------------------|--------------------------|
------------------------|--------------------------|
------------------------|--------------------------|
--5----5----5--5--5--7--|--L--7--7--7--7--7--7--0--|
--3----3----3--3--3--5--|--L--5--5--5--5--5--5--0--|
------------------------|--------------------------|


--------------------------|--------------------------|
--------------------------|--------------------------|
--------0-----------------|--------0-----------------|
--2--2--2--2--2--7--5-----|--2--2--2--2-----5-----7--|
--2--2--2--2--2--------7--|--2--2--2--2--3-----5-----|
--0--0--0--0--0-----------|--0--0--0--0--------------|


------------------------|--------------------------|
------------------------|--------------------------|
------------------------|--------------------------|
--5----5----5--5--5--7--|--L--7--7--7--7--7--7--0--|
--3----3----3--3--3--5--|--L--5--5--5--5--5--5--0--|
------------------------|--------------------------|


--------------------------|--------------------------|
--------------------------|--------------------------|
--------0-----------------|--------0-----------------|
--2--2--2--2--2--7--5-----|--2--2--2--2-----5-----7--|
--2--2--2--2--2--------7--|--2--2--2--2--3-----5-----|
--0--0--0--0--0-----------|--0--0--0--0--------------|

------------------------|--------------------------|
------------------------|--------------------------|
------------------------|--------------------------|
--5----5----5--5--5--7--|--L--7--7--7--7--7--7--0--|
--3----3----3--3--3--5--|--L--5--5--5--5--5--5--0--|
------------------------|--------------------------|


------------------------|--------------------------|
------------------------|--------------------------|
------------------------|--------------------------|
--5----5----5--5--5--7--|--L--7--7--7--7--7--7--0--|
--3----3----3--3--3--5--|--L--5--5--5--5--5--5--0--|
------------------------|--------------------------|

------------------------|--------------------------|
------------------------|--------------------------|
------------------------|--------------------------|
--5----5----5--5--5--7--|--L--7--7--7--7--7--7--0--|
--3----3----3--3--3--5--|--L--5--5--5--5--5--5--0--|
------------------------|--------------------------|

--------------------------|--------------------------|
--------------------------|--------------------------|
--------0-----------------|--------0-----------------|
--2--2--2--2--2--7--5-----|--2--2--2--2-----5-----7--|
--2--2--2--2--2--------7--|--2--2--2--2--3-----5-----|
--0--0--0--0--0-----------|--0--0--0--0--------------|


--------------------------|--------------------------|
--------------------------|--------------------------|
--------0-----------------|--------0-----------------|
--2--2--2--2--2--7--5-----|--2--2--2--2-----5-----7--|
--2--2--2--2--2--------7--|--2--2--2--2--3-----5-----|
--0--0--0--0--0-----------|--0--0--0--0--------------|

estrofa
--------------------------|--------------------------|
--------------------------|--------------------------|
--------0-----------------|--------0-----------------|
--2--2--2--2--2--7--5-----|--2--2--2--2-----5-----7--|
--2--2--2--2--2--------7--|--2--2--2--2--3-----5-----|
--0--0--0--0--0-----------|--0--0--0--0--------------|


--------------------------|--------------------------|
--------------------------|--------------------------|
--------0-----------------|--------0-----------------|
--2--2--2--2--2--7--5-----|--2--2--2--2-----5-----7--|
--2--2--2--2--2--------7--|--2--2--2--2--3-----5-----|
--0--0--0--0--0-----------|--0--0--0--0--------------|


--------------------------|--------------------------|
--------------------------|--------------------------|
--------0-----------------|--------0-----------------|
--2--2--2--2--2--7--5-----|--2--2--2--2-----5-----7--|
--2--2--2--2--2--------7--|--2--2--2--2--3-----5-----|
--0--0--0--0--0-----------|--0--0--0--0--------------|


--------------------------|--------------------------|
--------------------------|--------------------------|
--------0-----------------|--------0-----------------|
--2--2--2--2--2--7--5-----|--2--2--2--2-----5-----7--|
--2--2--2--2--2--------7--|--2--2--2--2--3-----5-----|
--0--0--0--0--0-----------|--0--0--0--0--------------|

precoro
-------------------------|-------------------------|
-------------------------|-------------------------|
-------------------------|-------------------------|
--2----2--0--0--7--7--7--|--2----2--0--0--7--7--7--|
--2----2--0--0--7--7--7--|--2----2--0--0--7--7--7--|
--0----0--------5--5--5--|--0----0--------5--5--5--|


-------------------------|-------------------------|
-------------------------|-------------------------|
-------------------------|-------------------------|
--2----2--0--0--7--7--7--|--2----2--0--0--7--7--7--|
--2----2--0--0--7--7--7--|--2----2--0--0--7--7--7--|
--0----0--------5--5--5--|--0----0--------5--5--5--|

-------------------------|-------------------------|
-------------------------|-------------------------|
-------------------------|-------------------------|
--2----2--0--0--7--7--7--|--2----2--0--0--7--7--7--|
--2----2--0--0--7--7--7--|--2----2--0--0--7--7--7--|
--0----0--------5--5--5--|--0----0--------5--5--5--|

-------------------------|-------------------------|
-------------------------|-------------------------|
-------------------------|-------------------------|
--2----2--0--0--7--7--7--|--2----2--0--0--7--7--7--|
--2----2--0--0--7--7--7--|--2----2--0--0--7--7--7--|
--0----0--------5--5--5--|--0----0--------5--5--5--|

coro
------------------------|--------------------------|
------------------------|--------------------------|
------------------------|--------------------------|
--5----5----5--5--5--7--|--L--7--7--7--7--7--7--0--|
--3----3----3--3--3--5--|--L--5--5--5--5--5--5--0--|
------------------------|--------------------------|


--------------------------|--------------------------|
--------------------------|--------------------------|
--------0-----------------|--------0-----------------|
--2--2--2--2--2--7--5-----|--2--2--2--2-----5-----7--|
--2--2--2--2--2--------7--|--2--2--2--2--3-----5-----|
--0--0--0--0--0-----------|--0--0--0--0--------------|


------------------------|--------------------------|
------------------------|--------------------------|
------------------------|--------------------------|
--5----5----5--5--5--7--|--L--7--7--7--7--7--7--0--|
--3----3----3--3--3--5--|--L--5--5--5--5--5--5--0--|
------------------------|--------------------------|


--------------------------|--------------------------|
--------------------------|--------------------------|
--------0-----------------|--------0-----------------|
--2--2--2--2--2--7--5-----|--2--2--2--2-----5-----7--|
--2--2--2--2--2--------7--|--2--2--2--2--3-----5-----|
--0--0--0--0--0-----------|--0--0--0--0--------------|

------------------------|--------------------------|
------------------------|--------------------------|
------------------------|--------------------------|
--5----5----5--5--5--7--|--L--7--7--7--7--7--7--0--|
--3----3----3--3--3--5--|--L--5--5--5--5--5--5--0--|
------------------------|--------------------------|


------------------------|--------------------------|
------------------------|--------------------------|
------------------------|--------------------------|
--5----5----5--5--5--7--|--L--7--7--7--7--7--7--0--|
--3----3----3--3--3--5--|--L--5--5--5--5--5--5--0--|
------------------------|--------------------------|

------------------------|--------------------------|
------------------------|--------------------------|
------------------------|--------------------------|
--5----5----5--5--5--7--|--L--7--7--7--7--7--7--0--|
--3----3----3--3--3--5--|--L--5--5--5--5--5--5--0--|
------------------------|--------------------------|

--------------------------|--------------------------|
--------------------------|--------------------------|
--------0-----------------|--------0-----------------|
--2--2--2--2--2--7--5-----|--2--2--2--2-----5-----7--|
--2--2--2--2--2--------7--|--2--2--2--2--3-----5-----|
--0--0--0--0--0-----------|--0--0--0--0--------------|


--------------------------|--------------------------|
--------------------------|--------------------------|
--------0-----------------|--------0-----------------|
--2--2--2--2--2--7--5-----|--2--2--2--2-----5-----7--|
--2--2--2--2--2--------7--|--2--2--2--2--3-----5-----|
--0--0--0--0--0-----------|--0--0--0--0--------------|


--------------------------|--------------------------|
--------------------------|--------------------------|
--------0-----------------|--------0-----------------|
--2--2--2--2--2--7--5-----|--2--2--2--2-----5-----7--|
--2--2--2--2--2--------7--|--2--2--2--2--3-----5-----|
--0--0--0--0--0-----------|--0--0--0--0--------------|


--------------------------|--------------------------|
--------------------------|--------------------------|
--------0-----------------|--------0-----------------|
--2--2--2--2--2--7--5-----|--2--2--2--2-----5-----7--|
--2--2--2--2--2--------7--|--2--2--2--2--3-----5-----|
--0--0--0--0--0-----------|--0--0--0--0--------------|

puente
-----------------------|-------------------------|
-----------------------|-------------------------|
--9----9----9--7----5--|--L--5--5--5--5--7--7----|
--9----9----9--7----5--|--L--5--5--5--5--7--7----|
--7----7----7--5----3--|--L--3--3--3--3--5--5----|
-----------------------|-------------------------|


------------------------------|----------------------------------|
------------------------------|----------------------------------|
--9--9--9--9--11--11--11--11--|--12--12--12--12--14--14--14--14--|
--x--x--x--x---x---x---x---x--|---x---x---x---x---x---x---x---x--|
--7--7--7--7---9---9---9---9--|--10--10--10--10--12--12--12--12--|
------------------------------|----------------------------------|


-----------------------|-------------------------|
-----------------------|-------------------------|
--9----9----9--7----5--|--L--5--5--5--5--7--7----|
--9----9----9--7----5--|--L--5--5--5--5--7--7----|
--7----7----7--5----3--|--L--3--3--3--3--5--5----|
-----------------------|-------------------------|


------------------------------|----------------------------------|
------------------------------|----------------------------------|
--9--9--9--9--11--11--11--11--|--12--12--12--12--14--14--14--14--|
--x--x--x--x---x---x---x---x--|---x---x---x---x---x---x---x---x--|
--7--7--7--7---9---9---9---9--|--10--10--10--10--12--12--12--12--|
------------------------------|----------------------------------|

coro
------------------------|--------------------------|
------------------------|--------------------------|
------------------------|--------------------------|
--5----5----5--5--5--7--|--L--7--7--7--7--7--7--0--|
--3----3----3--3--3--5--|--L--5--5--5--5--5--5--0--|
------------------------|--------------------------|


--------------------------|--------------------------|
--------------------------|--------------------------|
--------0-----------------|--------0-----------------|
--2--2--2--2--2--7--5-----|--2--2--2--2-----5-----7--|
--2--2--2--2--2--------7--|--2--2--2--2--3-----5-----|
--0--0--0--0--0-----------|--0--0--0--0--------------|


------------------------|--------------------------|
------------------------|--------------------------|
------------------------|--------------------------|
--5----5----5--5--5--7--|--L--7--7--7--7--7--7--0--|
--3----3----3--3--3--5--|--L--5--5--5--5--5--5--0--|
------------------------|--------------------------|


--------------------------|--------------------------|
--------------------------|--------------------------|
--------0-----------------|--------0-----------------|
--2--2--2--2--2--7--5-----|--2--2--2--2-----5-----7--|
--2--2--2--2--2--------7--|--2--2--2--2--3-----5-----|
--0--0--0--0--0-----------|--0--0--0--0--------------|

------------------------|--------------------------|
------------------------|--------------------------|
------------------------|--------------------------|
--5----5----5--5--5--7--|--L--7--7--7--7--7--7--0--|
--3----3----3--3--3--5--|--L--5--5--5--5--5--5--0--|
------------------------|--------------------------|


------------------------|--------------------------|
------------------------|--------------------------|
------------------------|--------------------------|
--5----5----5--5--5--7--|--L--7--7--7--7--7--7--0--|
--3----3----3--3--3--5--|--L--5--5--5--5--5--5--0--|
------------------------|--------------------------|

------------------------|--------------------------|
------------------------|--------------------------|
------------------------|--------------------------|
--5----5----5--5--5--7--|--L--7--7--7--7--7--7--0--|
--3----3----3--3--3--5--|--L--5--5--5--5--5--5--0--|
------------------------|--------------------------|

--------------------------|--------------------------|
--------------------------|--------------------------|
--------0-----------------|--------0-----------------|
--2--2--2--2--2--7--5-----|--2--2--2--2-----5-----7--|
--2--2--2--2--2--------7--|--2--2--2--2--3-----5-----|
--0--0--0--0--0-----------|--0--0--0--0--------------|


--------------------------|--------------------------|
--------------------------|--------------------------|
--------0-----------------|--------0-----------------|
--2--2--2--2--2--7--5-----|--2--2--2--2-----5-----7--|
--2--2--2--2--2--------7--|--2--2--2--2--3-----5-----|
--0--0--0--0--0-----------|--0--0--0--0--------------|


--------------------------|--------------------------|
--------------------------|--------------------------|
--------0-----------------|--------0-----------------|
--2--2--2--2--2--7--5-----|--2--2--2--2-----5-----7--|
--2--2--2--2--2--------7--|--2--2--2--2--3-----5-----|
--0--0--0--0--0-----------|--0--0--0--0--------------|


--------------------------|--------------------------|
--------------------------|--------------------------|
--------0-----------------|--------0-----------------|
--2--2--2--2--2--7--5-----|--2--2--2--2-----5-----7--|
--2--2--2--2--2--------7--|--2--2--2--2--3-----5-----|
--0--0--0--0--0-----------|--0--0--0--0--------------|


-------------------|--------------------||
-------------------|--------------------||
-------------------|--------------------||
--2----------------|--2-----------------||
--2----------------|--2-----------------||
--0----------------|--0-----------------||

            
            
Suggest correction
Creating personal tab
Creating personal tab
You can edit any tab online and save it as your Personal.

You can edit, replace or remove any tab part or add personal notes – all changes will be seen only by you.

Personal tabs can be accessed anytime from any device, even offline.
Learn more »
Give kudos to tab author, rate the tab!
1 2 3 4 5
comments
print report bad tab
guest
Wanna post a correction for this tab? Suggest correction