Oops, an error
Loading. Please wait.

Narigón tab

23 views 3 this week
no commentswrite comment
1 2 3 4 5
3 more votes to show rating
add to favorites
×
Save as Personal and add changes to this tab that will be seen only by you. Learn more ›
×
You can save this tab as Personal to edit and correct it or add notes. All changes will be seen only by you. Learn more »
launch autoscroll
font size
0
reset
how to read this tab
guitar tuner
edit
Autoscroll
slow
fast
+/-
esc
set tempo
stop
ESta cancion es muy chakal, aunque la tablatura no es exacta,
igual suena... son dificiles los acordes... esta es como una
combinacion entre la version del disco porque chile es porno
con la de las raras tocatas nuevas de la rock and pop...
disfrute nomas!


Intro:
(Con harto rasgueo funk, por eso las mudas)
(x4)
E||-----------------|-------------||
B||-----------------|-------------||
G||-----------------|-------------||
D||-------5-x-6-x-7-|--7-x-8-x-9--||
A||-------5-x-6-x-7-|--7-x-8-x-9--||
E||-----------------|-------------||

(x3)
E||-------------------------------|------------11-x-11--||
B||-------------------x-x-x-x-x---|------------11-x-11--||
G||-------------------5h7-4-7-4---|-------------8----8--||
D||-------5-x-6-x-7---x-x-x-x-x---|--7-x-8-x-9----------||
A||-------5-x-6-x-7---------------|--7-x-8-x-9----------||
E||-------------------------------|---------------------||
(es la ultima de la intro)
E||-------------------------------|---------------------||
B||-------------------x-x-x-x-x---|---------------------||
G||-------------------5h7-4-7-4---|---------------------||
D||-------5-x-6-x-7---x-x-x-x-x---|--7-7-7--8--9--------||
A||-------5-x-6-x-7---------------|--7-7-7--8--9--------||
E||-------------------------------|---------------------||

Verso:

(sigue con rasgueo funk)
(x2)
E||-----5------------|-----5------------|-----5------------|
B||-----5------------|-----5------------|-----5------------|
G||----x--3-3h5-3----|----x--3-3h5-3----|----x--3-3h5-3----|
D||--5------------5--|--5------------5--|--5------------5--|
A||------------------|------------------|------------------|
E||------------------|------------------|------------------|

E||-----5--3-x-3-x-3-||
B||-----5--3-x-3-x-3-||
G||----x-------------||
D||--5---------------||
A||------------------||
E||------------------||


Soy el narigón... ajajaja, yo soy el narigón si señor
las mujeres caen rendidas a mis pies,
porque soy narigon, y el mejor


Bridge:

[x3] Oh Baby!                         Yo Soy
E||-------------------------------|------------11-x-11--||
B||-------------------x-x-x-x-x---|------------11-x-11--||
G||-------------------5h7-4-7-4---|-------------8----8--||
D||-------5-x-6-x-7---x-x-x-x-x---|--7-x-8-x-9----------||
A||-------5-x-6-x-7---------------|--7-x-8-x-9----------||
E||-------------------------------|---------------------||
(es la ultima de la intro)Oh Baby!
E||-------------------------------|---------------------||
B||-------------------x-x-x-x-x---|---------------------||
G||-------------------5h7-4-7-4---|---------------------||
D||-------5-x-6-x-7---x-x-x-x-x---|--7-7-7--8--9--------||
A||-------5-x-6-x-7---------------|--7-7-7--8--9--------||
E||-------------------------------|---------------------||


Verso:

Soy el narigón... ajajaja, yo soy el narigón si señor
yo la tengo grande (vo po)
Yo la tengo grande (vo po)
en mi cara,
y en otras partes...

Bridge:

Oh Baby, yo soy (x3)
Oh baby!


Cambio:

El Do se mantiene un poco mas
(x4)
  RE9DO       Re9(no5) MI9+(no5)
E||---------|--------|---------|
B||---------|---5----|---8-----|
G||-5-------|---5----|---7-----|
D||-5-------|---4----|---6-----|
A||-7-------|---5----|---7-----|
E||---------|--------|---------|

Este es como el punteo medio salsero que hay
(x4)
E||----------------------|------------------------||
B||----------------------|--------------8-x-8-x-8-||
G||----5--------7--------|-----5--------7-x-7-x-7-||
D||--7-----5--4--------4-|-----4-7------5-x-5-x-5-||
A||------7---------5-----|--5--------7--7-x-7-x-7-||
E||----------------------|------------------------||


Coro:
  RE9DO  Re9(no5)  FA#9+(no5) MI9+(no5)
E||----|---------|----------|--------||
B||----|---5-----|---10-----|---8----||
G||--5-|---5-----|---9------|---7----||
D||--5-|---4-----|---8------|---6----||
A||--7-|---5-----|---9------|---7----||
E||----|---------|----------|--------||


DO           RE9      FA#9         MI9 
Y se viene el narigón,   y se viene a vacilar [x4]


despues se repite el coro...

weno, este es el humilde aporte desde arica, ciudad de la eterna
primavera para toda la comunidad mandinguera de chile, y awante
cholomandinga aqui y en la pica del aji

saludos, tomás

            
            
Suggest correction
Creating personal tab
Creating personal tab
You can edit any tab online and save it as your Personal.

You can edit, replace or remove any tab part or add personal notes – all changes will be seen only by you.

Personal tabs can be accessed anytime from any device, even offline.
Learn more »
Give kudos to tab author, rate the tab!
1 2 3 4 5
comments
print report bad tab
guest
Wanna post a correction for this tab? Suggest correction