Oops, an error
Loading. Please wait.

Agua De Lluvia chords

29 views 1 this week
no commentswrite comment
1 2 3 4 5
3 more votes to show rating
add to favorites
×
Save as Personal and add changes to this tab that will be seen only by you. Learn more ›
×
You can save this tab as Personal to edit and correct it or add notes. All changes will be seen only by you. Learn more »
launch autoscroll
font size
0
reset
transpose
0
reset
simplify chords
display chords
guitar tuner
edit
Autoscroll
slow
fast
+/-
esc
set tempo
stop
Strumming
There is no strumming pattern for this song yet. and get +5 IQ
e|--7---------10---------10--8---7------7---------10---------10--8--
B|-----8--10-------3--4-------------10-----8--10-------3--4---------
G|------------------------------------------------------------------
D|------------------------------------------------------------------
A|------------------------------------------------------------------
E|------------------------------------------------------------------

      G          B7           Em                    G/F  G7 
De repente, sin buscarte a mi vida solitaria, tú llegaste
      Cm  Cm7      G              C Cm7    D   D7
tuve miedo, que ironía, yo no quería enamorarme.
      G          B7               Em                       G/F  G7 
Me dijiste, que me amabas, me rendía ante los besos que me dabas
     Cm  Cm7      G           C            D         G   (D D7 D7)
era tarde, te quería, y era triste porque ya no te tenía.

          G
Agua de lluvia, me ilusionaste
           G7                    C
y cuando estaba ilusionado evaporaste.
Am       D7   Am         D7  Am
Agua de lluvia, me enamoraste
           D7        B7         Em
y cuando estaba enamorado me dejaste
       Am             C   D
sin importarte, evaporaste.


e|--7---------10---------10--8---7------7---------10---------10--8--
B|-----8--10-------3--4-------------10-----8--10-------3--4---------
G|------------------------------------------------------------------
D|------------------------------------------------------------------
A|------------------------------------------------------------------
E|------------------------------------------------------------------

      G          B7           Em                    G/F  G7 
De repente, sin buscarte a mi vida solitaria, tú llegaste
      Cm  Cm7      G            C            D         G   (D D7 D7)
tuve miedo, que ironía, y era triste porque ya no te tenía.

          G
Agua de lluvia, me ilusionaste
           G7                    C
y cuando estaba ilusionado evaporaste.
Am       D7   Am         D7  Am
Agua de lluvia, me enamoraste
           D7        B7         Em
y cuando estaba enamorado me dejaste
       Am             C    D          G
sin importarte, evaporaste, agua de lluvia.

---------------------
     E  B  G  D  A  E
G+ : 3  3  4  5  5  3
G7+: 3  6  4  3  5  3
G/F: 3  3  4  3  5  3
G  : 3  3  0  0  2  3
G7 : 1  0  0  0  2  3

            
            
Suggest correction
Creating personal tab
Creating personal tab
You can edit any tab online and save it as your Personal.

You can edit, replace or remove any tab part or add personal notes – all changes will be seen only by you.

Personal tabs can be accessed anytime from any device, even offline.
Learn more »
Give kudos to tab author, rate the tab!
1 2 3 4 5
comments
print report bad tab
guest
Wanna post a correction for this tab? Suggest correction