Oops, an error
Loading. Please wait.

Dame Amor tab

3 views 1 this week
no commentswrite comment
1 2 3 4 5
3 more votes to show rating
add to favorites
×
Save as Personal and add changes to this tab that will be seen only by you. Learn more ›
×
You can save this tab as Personal to edit and correct it or add notes. All changes will be seen only by you. Learn more »
launch autoscroll
font size
0
reset
how to read this tab
guitar tuner
edit
Autoscroll
slow
fast
+/-
esc
set tempo
stop
*Usar capo en el primer traste.

*Los puntos están considerados a partir del traste siguiente a la del capo.

     Am
e------------------------------0---1---0-----------
B---4/5---5---1------------1---------------1-------
G-----------------2----2-----------------------2---
D--------------------------------------------------
A--------------------------------------------------
E--------------------------------------------------

            F
e---------------------------------------------------------
B-----------1----1--------------------1---3---1-----------
G-------2------------2------------2---------------2-------
D---3--------------------3----3-----------------------3---
A---------------------------------------------------------
E---------------------------------------------------------

            Dm
e-----------1----1--------------------1---3---1-----------
B-------3------------3------------3---------------3-------
G---2--------------------2----2-----------------------2---
D---------------------------------------------------------
A---------------------------------------------------------
E---------------------------------------------------------

        E
e-------0---1---0---1---0---1---0--------0---1---0---1---0---1---0---
B------------------------------------2-------------------------------
G---2----------------------------------------------------------------
D--------------------------------------------------------------------
A--------------------------------------------------------------------
E--------------------------------------------------------------------
(2 Veces)

   Am
La música no pare y tú bailando
    G
la noche es especial pero contigo
     Dm
tu cuerpo tu sudor tu sonreír tu buen humor
 B7                        E
ritmo que me tiene enloquecido.
   Am
Te miro y me imagino tantas cosas
    G
no sé como llegar que no consigo
  Dm
espero una señal una mirada un que casual
B7                       E   E7
nada me detiene y te lo digo.

          A                  F#m
Dame una ?a? (a, a) dame una eme (eme, eme)
          Bm                 E
dame una ?o? (o, o) dame una erre

dame amor, dame amor.

          A                  F#m
Dame una ?a? (a, a) dame una eme (eme, eme)
          Bm                 E
dame una ?o? (o, o) dame una erre
         Am             E                 Am
dame tu amor, dame tu amor , dame el corazón.


INSTRUMENTAL: Repetir el punteo de arriba.


   Am
Te miro y me imagino tantas cosas
    G
no sé como llegar que no consigo
  Dm
espero una señal una mirada un que casual
B7                       E   E7
nada me detiene y te lo digo.

          A                  F#m
Dame una ?a? (a, a) dame una eme (eme, eme)...

            
            
Suggest correction
Creating personal tab
Creating personal tab
You can edit any tab online and save it as your Personal.

You can edit, replace or remove any tab part or add personal notes – all changes will be seen only by you.

Personal tabs can be accessed anytime from any device, even offline.
Learn more »
Give kudos to tab author, rate the tab!
1 2 3 4 5
comments
print report bad tab
guest
Wanna post a correction for this tab? Suggest correction