Oops, an error
Loading. Please wait.

Ganas De Tí tab

23 views 1 this week
no commentswrite comment
1 2 3 4 5
3 more votes to show rating
add to favorites
×
Save as Personal and add changes to this tab that will be seen only by you. Learn more ›
×
You can save this tab as Personal to edit and correct it or add notes. All changes will be seen only by you. Learn more »
launch autoscroll
font size
0
reset
how to read this tab
guitar tuner
edit
Autoscroll
slow
fast
+/-
esc
set tempo
stop
INTRO: A# Gm Dm D# F
       A# Gm Dm D# F
       A# A#sus4 F A#

e|--6--5--8--6---3--5--6--5--8--6---------------------------3--5--
B|---------------------------------3--4--4/6------3--4---6--------
G|---------------------------------------------5------------------
D|----------------------------------------------------------------
A|----------------------------------------------------------------
E|----------------------------------------------------------------

e|--5/6--5--8--6---3--5--6--5--8--6---------------------------3--5--
B|-----------------------------------3--4--4/6------3--4---6--------
G|-----------------------------------------------5------------------
D|------------------------------------------------------------------
A|------------------------------------------------------------------
E|------------------------------------------------------------------

e|-------------------
B|--3--3/4--1--1/3---
G|-------------------
D|-------------------
A|-------------------
E|-------------------

                F                  D#          A# (A#sus4 - A#)
Pienso sólo en ti, nada más que en ti, y te extraño.
                F                    D#           A# (A# - F)
Creo en lo que sé, no te he vuelto a ver, me hace daño.
Gm                          C7             D#                     F
Mi impaciencia crece al no verte, y el quererte está acabando conmigo.
A#                    Gm               Dm   D# F
Ganas de ti, que estuvieras aquí, a mi lado.
A#                    Gm                  Dm   D# F
Ganas de ti, que estuvieras aquí, en mis brazos.
Cm                 F
Ganas de ti, de tenerte.
Cm                  F
Ganas de ti, no perderte.

INTRUMENTAL: A# Gm Dm D# F
             A# A#sus4 F A#


e|-----1-----------------1-----------------------------
B|--------3/1-----1---------3/1-----1------1-----------
G|-------------3-----------------3------3-----2--0-----
D|--3-----------------3-----------------------------3--
A|-----------------------------------------------------
E|-----------------------------------------------------

e|-------------------
B|--3--3/4--1--1/3---
G|-------------------
D|-------------------
A|-------------------
E|-------------------

                F              D#        A#   (A#sus4 - A#)
Cuando tú no estás, nada es igual, todo cambia.
                F                 D#            A# (A# - F)
Sin tener tu amor, todo es un horror, me haces falta.
Gm                          C7             D#                     F
Mi impaciencia crece al no verte, y el quererte está acabando conmigo.
A#                    Gm               Dm   D# F
Ganas de ti, que estuvieras aquí, a mi lado.
A#                    Gm                  Dm   D# F
Ganas de ti, que estuvieras aquí, en mis brazos.
Cm                 F
Ganas de ti, de tenerte.
Cm                  F
Ganas de ti, no perderte.

INTRUMENTAL: A# Gm Dm D# F
             A# Gm Dm D# F

e|-----1-----------------1-----------------------------
B|--------3/1-----1---------3/1-----1------1-----------
G|-------------3-----------------3------3-----2--0-----
D|--3-----------------3-----------------------------3--
A|-----------------------------------------------------
E|-----------------------------------------------------

e|-----13--10/8--6--8------13--10/8--6--8---6--8------13------------
B|--6-------------------6-------------------------10------10--8--6--
G|------------------------------------------------------------------
D|------------------------------------------------------------------
A|------------------------------------------------------------------
E|------------------------------------------------------------------

e|---------------------------------
B|--------4--6--8--10--11--12--13--
G|--5--7---------------------------
D|---------------------------------
A|---------------------------------
E|---------------------------------

Cm                 F
Ganas de ti, de tenerte.
Cm                  F
Ganas de ti, no perderte.
A#                   Gm              Dm  D# F - A# Dm D# F - A# A#sus4 F A#
Ganas de ti que estuvieras aquí a mi lado.

------------------------
        E  B  G  D  A  E
A#sus4: 1  4  3  3  1  1

            
            
Suggest correction
Creating personal tab
Creating personal tab
You can edit any tab online and save it as your Personal.

You can edit, replace or remove any tab part or add personal notes – all changes will be seen only by you.

Personal tabs can be accessed anytime from any device, even offline.
Learn more »
Give kudos to tab author, rate the tab!
1 2 3 4 5
comments
print report bad tab
guest
Wanna post a correction for this tab? Suggest correction