Oops, an error
Loading. Please wait.

Mar De Dudas tab

29 views 1 this week
no commentswrite comment
1 2 3 4 5
3 more votes to show rating
add to favorites
×
Save as Personal and add changes to this tab that will be seen only by you. Learn more ›
×
You can save this tab as Personal to edit and correct it or add notes. All changes will be seen only by you. Learn more »
launch autoscroll
font size
0
reset
how to read this tab
guitar tuner
edit
Autoscroll
slow
fast
+/-
esc
set tempo
stop
*Si desean escuchar todas las canciones de Chris Durán entren a:
 
------------------------------------------------------------------

INTRO: A E F#m E D E (x2)


e|--9--10--12------------------------------
B|-------------10--12-----10-----9-----7---
G|---------------------9------9-----9------
D|-----------------------------------------
A|-----------------------------------------
E|-----------------------------------------


e|--9--10--12----------------------------------------10--9---
B|-------------10--12-----10-----9-----7---7--9--10----------
G|---------------------9------9-----9------------------------
D|-----------------------------------------------------------
A|-----------------------------------------------------------
E|-----------------------------------------------------------


A                          D
 Partirá tu avión de madrugada
A                   E
 te separan de mi mañana
D               A              Bm
 ellos te dicen   que es lo mejor
D      Bm         E
 y nos ponen un océano entre los dos.

A      E              D
 Cada cual en una esquina del planeta
Bm        D         E
 con los corazones rotos en la maleta
D                    A        Bm
 lo nuestro apenas acaba de nacer
D        Bm           E             D - E
 y este cambio no le hace nada bien.

          A                      E
Sin tu calor se hará largo el verano
                    D
sin tu amor me moriré congelado
          A                   E
con tu recuerdo estoy atormentado
                 D              E
no soporto no tenerte a mi lado
       D            E
te imagino como una ola
                 A     F#m
que rompe en mi corazón
     D                 E
y navego en un mar de dudas
                    A         F#m
voy sin norte en mi habitación
       D                E
me pregunto porque vacaciones
            A  F#m
a nuestro amor
       D                E
me pregunto porque vacaciones
            A
a nuestro amor.

INSTRUMENTAL: A E D E A


e|--9--10--12--12------------------12--12--
B|-----------------10--10--10--10----------
G|-----------------------------------------
D|-----------------------------------------
A|-----------------------------------------
E|-----------------------------------------


e|------------------12--12--12--12--10--9----------12----------
B|--10--10--10--10-------------------------10--12------12--10--
G|-------------------------------------------------------------
D|-------------------------------------------------------------
A|-------------------------------------------------------------
E|-------------------------------------------------------------


A           E        D
 Llámame y dime que no me vas a olvidar
Bm             D        E
 que de ningún otro te vas a enamorar
D                      A          Bm
 que cuando regreses, todo será igual
D            Bm         E                D - E
 te extraño tanto y te acabas de marchar.

          A                      E
Sin tu calor se hará largo el verano...

            
            
Suggest correction
Creating personal tab
Creating personal tab
You can edit any tab online and save it as your Personal.

You can edit, replace or remove any tab part or add personal notes – all changes will be seen only by you.

Personal tabs can be accessed anytime from any device, even offline.
Learn more »
Give kudos to tab author, rate the tab!
1 2 3 4 5
comments
print report bad tab
guest
Wanna post a correction for this tab? Suggest correction