Oops, an error
Loading. Please wait.

Te Perdí tab

113 views 1 this week
no commentswrite comment
1 2 3 4 5
3 more votes to show rating
add to favorites
×
Save as Personal and add changes to this tab that will be seen only by you. Learn more ›
×
You can save this tab as Personal to edit and correct it or add notes. All changes will be seen only by you. Learn more »
launch autoscroll
font size
0
reset
how to read this tab
guitar tuner
edit
Autoscroll
slow
fast
+/-
esc
set tempo
stop
*Si desean escuchar todas las canciones de Chris Durán entren a:
 
------------------------------------------------------------------

INTRO: C F7  C/E Dm7 C F7  C/E Dm7


e|---------------8--7--------------------8--7-----
B|--3--1-----5---------8-----3--1-----5--------8--
G|--------0------------------------0--------------
D|------------------------------------------------
A|------------------------------------------------
E|------------------------------------------------


e|---------------------------8--7-----
B|--------0--1--3--1-----5---------8--
G|--0--2--------------0---------------
D|-------------------------------------
A|-------------------------------------
E|-------------------------------------


e|------------------------------
B|-----1--5--3--1-----5---3--1--
G|--2--------------0------------
D|------------------------------
A|------------------------------
E|------------------------------


          C                           G/B                   (Riff 1)
Te he llamado y me han dicho que no estás (Riff 1)      e|--8--7-----
                                                        B|--------8--
         G/A            A/G           Dm7               G|-----------
te he buscado en mil lugares todo el tiempo (Riff 2)    D|-----------
                                                        A|-----------
                                F/G                     E|-----------
le pregunto a los amigos qué de ti (Riff 1)

     Dm7           G7             C    G4/7 G7              (Riff 2)
y me dicen que sin mi jamás has vuelto. (Riff 3 y 4)    e|-----------
                                                        B|--6--5-----
                                                        G|--------5--
       C                          G/B                   D|-----------
Yo no sé por qué te has ido yo no sé (Riff 1)           A|-----------
                                                        E|-----------
      G/A            A/G          Dm7
qué pasó que ya no estás más a mi lado (Riff 2)
                                                            (Riff 3)
                          F/G G7                        e|-----------
he debido cometer algún error (Riff 1)                  B|--5--6--5--
                                                        G|-----------
          Dm7       F/G          C                      D|-----------
que en tu joven corazón habrá calado (Riff 3)           A|-----------
                                                        E|-----------
         G4/7 G7
y sin querer. (Riff 4)
                                                           (Riff 4)
                                                     e|-----3-----------
       C                     F                       B|--------3--------
Te perdí y hoy estoy desesperado                     G|-----------4-----
                                                     D|--5-----------5--
C/E   Dm7                G7  F/A                     A|-----------------
te perdí y no sé nada de ti.                         E|-----------------

G/B    C                     F
Te perdí y no estoy acostumbrado                           (Riff 5)
                                                     e|--8--7-----------
C/E Dm7                     G4/7  G7                 B|--------8--5-----
a vivir sin tenerte junto a mi.                      G|--------------7--
                                                     D|-----------------
     F                              C                A|-----------------
El amor tiene esas cosas y un buen día (Riff 5)      E|-----------------

       F                           G4/7 F/A G/B
me di cuenta que al perderte me perdí.


C F7  C/E Dm7

e|---------------------------8--7-----
B|--------0--1--3--1-----5---------8--
G|--0--2--------------0---------------
D|-------------------------------------
A|-------------------------------------
E|-------------------------------------


e|-----------------------------------
B|--------5-----3--1-----5--5--3--1--
G|--0--5-----5--------0--------------
D|-----------------------------------
A|-----------------------------------
E|-----------------------------------


       C                          G/B
Yo no sé por qué te has ido yo no sé (Riff 1)...

            G4/7 G7
...y sin querer. (Riff 4)


       C                     F
Te perdí y hoy estoy desesperado...

   C/E Dm7                     G4/7  G7
...a vivir sin tenerte junto a mi.


INSTRUMENTAL: C F7+ Dm7 G7 F/A

e|----------------------------------------------
B|------------------------3--5---5--3--1--1-----
G|--0--2--4---0--2--4--5---------------------2--
D|----------------------------------------------
A|----------------------------------------------
E|----------------------------------------------

e|-----------0--1--0--------0--------------------
B|--------1-----------3--1-----3-----------------
G|--0--2--------------------------2--0--0--2--4--
D|-----------------------------------------------
A|-----------------------------------------------
E|-----------------------------------------------


G/B    C                     F
Te perdí y no estoy acostumbrado

C/E Dm7                     G4/7  G7
a vivir sin tenerte junto a mi.

     F                              C
El amor tiene esas cosas y un buen día (Riff 5)

       F7                          G7
me di cuenta que al perderte me perdí

           F/A  G/B    C F7  C
que al perderte me perdí.


e|-----------------0--1----5--3-----------------------
B|--3--1-----1----------------------3--3--------3-----
G|--------2-----2----------------5--------5--------5--
D|-------------------------------------------5--------
A|----------------------------------------------------
E|----------------------------------------------------


----------------------
      E  B  G  D  A  E
C   : 0  1  0  2  3  0
F7+ : 0  1  2  2  0  1
C/E : 0  1  0  2  3  0         **************************
Dm7 : 5  6  5  7  5  5         * Jairo Espinoza Villena *
G/B : 3  3  0  0  2  0         *  jairo_ev@  *
G/A : 3  3  4  5  0  0         *    Chimbote - Perú     *
A/G : 0  2  2  2  0  3         **************************
F/G : 0  1  2  3  0  3
G4/7: 3  3  5  3  5  3
G7  : 3  3  4  3  5  3
F/A : 0  6  5  3  0  5
Suggest correction
Creating personal tab
Creating personal tab
You can edit any tab online and save it as your Personal.

You can edit, replace or remove any tab part or add personal notes – all changes will be seen only by you.

Personal tabs can be accessed anytime from any device, even offline.
Learn more »
Give kudos to tab author, rate the tab!
1 2 3 4 5
comments
print report bad tab
guest
Wanna post a correction for this tab? Suggest correction