Oops, an error
Loading. Please wait.

Te Tengo Aquí tab

30 views 1 this week
no commentswrite comment
1 2 3 4 5
3 more votes to show rating
add to favorites
×
Save as Personal and add changes to this tab that will be seen only by you. Learn more ›
×
You can save this tab as Personal to edit and correct it or add notes. All changes will be seen only by you. Learn more »
launch autoscroll
font size
0
reset
how to read this tab
guitar tuner
edit
Autoscroll
slow
fast
+/-
esc
set tempo
stop
ahi les va esta cancion yo la sace diferente
pero suena mui bien creo ke mejor
(lleva capo en el primer traste)

INTRO

e|---------0-0-3-3-2------------3-3-2-2-0--|
B|---------1-1-1-1-1------------3-3-3-3-3--|
G|-------0-0-0-0-0-0----------0-0-0-0-0-0--|
D|-----0---2-2-2-2-2--------0---0-0-0-0-0--|
A|-0h2----------------0-0h2-----2-2-2-2-2--|
E|-----------------------------------------|

e|----------0-0-3-3-2------------3-3-2-2-0|
B|----------1-1-1-1-1------------3-3-3-3-3|
G|----------0-0-0-0-0----------0-0-0-0-0-0|
D|----------2-2-2-2-2--------0---0-0-0-0-0|
A|0-0h2-0-2------------0-0h2-----2-2-2-2-2|
E|----------------------------------------|


en la ultima parte suena la segunda guitarra

e|----------|
B|----------|
G|-2/4-4-2h0|
D|----------|
A|----------|
E|----------|

la cancion lleva los acordes de arriba
 solo son dos pero van haciendo
un pekeño adorno bajando medio
 tono en cada rasgeo pero solo de
 la primera cuerda como lo puse en la
 tablatura.(es lo mismo de arriba, solo sin el bajeo)


Querido viejo, me llevo tu carta
me alegra saber, que todo este bien,
aqui nada cambia no no..
no es tan transparente, la crisis pasea
triztesa constante,

el barco perdido, sin el cápitan,
no se que paso,no se como fue,
pero no te vuelvas, te dire porque,
te dire porque...

Faltas tu aqui,y no te preocupes, no te preocupes

(en esta parte empieza de nuevo el bajeo como lo puse arriba)

que todo esta bien te tengo aqui,
te prometo que orgulloso te hare
y ya te vere y te abrazare, luego te dire
No hay nadie como tu

(aqui va una segunda guitarra asiendo el acompañamiento
con la otra que toca lo del intro)

e|--------------------------------
B|---0---0-1/3--0-----------------
G|-0---1----------0-2/4-4-4-4-2h0-
D|--------------------------------
A|--------------------------------
E|--------------------------------

e|--------------------------
B|---0---0------------------
G|-0---1---0h2--0-2/4-4-4-0-
D|--------------------------
A|--------------------------
E|--------------------------

(vuelve a ser igual el rasgeo i los acordes ke antes)

Aqui en esta casa, existe nostalgia
de aquellas personas, que nunca se olvidan
la gente se escapa, no hay salida,
hasta los gorriones se van de gira
te dire porque...

Haces falta tu, y no te preocupes, no te
preocupes.. que todo esta bien.. te tengo aki
te prometo que, orgulloso te haré.
y ya te vere! y te abrazare luego te dire
no hay nadie como tu.

se que te esperas..
se que te esperas...
te estoy esperando..
estoy esperando...

            
            
Suggest correction
Creating personal tab
Creating personal tab
You can edit any tab online and save it as your Personal.

You can edit, replace or remove any tab part or add personal notes – all changes will be seen only by you.

Personal tabs can be accessed anytime from any device, even offline.
Learn more »
Give kudos to tab author, rate the tab!
1 2 3 4 5
comments
print report bad tab
guest
Wanna post a correction for this tab? Suggest correction