Oops, an error
Loading. Please wait.

Ahí Te Ves tab

version 1
version 1

Whole song

Interactive

41 views 1 this week
no commentswrite comment
1 2 3 4 5
3 more votes to show rating
add to favorites
×
Save as Personal and add changes to this tab that will be seen only by you. Learn more ›
×
You can save this tab as Personal to edit and correct it or add notes. All changes will be seen only by you. Learn more »
launch autoscroll
font size
0
reset
how to read this tab
guitar tuner
edit
Autoscroll
slow
fast
+/-
esc
set tempo
stop
Ahí esta la canción pedida apenas tengo 15 años pero creo que
se parece tanto a la original...ja ja ...me acolitó un
profesor...

Introducción: (2 veces)

e-------------------------------------------
B-------------------------------------------
G-------------------------------------------
D---6-----6---6-----6-----------------------
A-4---4-4---4---4-4-------7-----7---7-----7-
E-----------------------5---5-5---5---5-5---

e-------------------------------------------
B-------------------------------------------
G-------------------------------------------
D-------------------------4-----4-----------
A---2-----2---2-----2---2---2-2---4-4-2-1---
E-0---0-0---0---0-0-------------------------


 (A) Verso1:

e-------------------------------------------
B-------------------------------------------
G-------------------------------------------
D---6-----6---6-----6-----------------------
A-4---4-4---4---4-4-------7-----7---7-----7-
E-----------------------5---5-5---5---5-5---

 (B) Verso1:

e-------------------------------------------
B-------------------------------------------
G-------------------------------------------
D---9-----9---9-----9-----------------------
A-7---7-7---7---7-7-------9-----9---9-----9-
E-----------------------7---7-7---7---7-7---

A: En la vida no todo es felicidad
  (Solamente momentos de alegría)

B: Hay muchas cosas que te hacen despertar
  (Momentos que no se repetirán)

A: Gente que viene gente que va
  (Gente que tiene gente que da)

B: Gente que no volverás a ver jamás


Verso 1: (Guitarra distorsión)


(C) Verso1:

e-------------------------------------------
B-------------------------------------------
G----------6-*5-----------------------------
D----------6------------7-*5----------------
A-----4-----------------7-------------------
E------------------5------------------------

 (D) Verso1:

e-------------------------------------------
B-------------------------------------------
G----------9-*5-----------------------------
D----------9-------------9-*5---------------
A-----7------------------9------------------
E-------------------7-----------------------

C: En la vida no todo es felicidad
  (Solamente momentos de alegría)

D: Hay muchas cosas que te hacen despertar
  (Momentos que no se repetirán)

C: Gente que viene gente que va
  (Gente que tiene gente que da)

D: Gente que no volverás a ver jamás

ANTES DEL CORO:

e--------------- ----------- ----------------------
B--------------- ----------- ----------------------
G----------6---- ------6-*6- ------6-*2-------7-*2-
D----------6---- ------6---- ------6----------7----
A-----4--------- -4--------- -4---------5----------
E--------------- ----------- ----------------------
                 ***********
                  PALM MUTE

e-------------------------------------------
B-------------------------------------------
G----------6-*2--------7--------9-----------
D----------6-----------7--------9-----------
A-----4-----------5--------7----------------
E-------------------------------------------


e-------------------------------------------
B-------------------------------------------
G----------9-*5--------9-*5-----------------
D----------9-----------9--------------------
A-----7-----------7-------------------------
E-------------------------------------------

e-------------------------------------------
B-------------------------------------------
G----------6-*5-----------------------------
D----------6------------7-*5----------------
A-----4-----------------7-------------------
E------------------5------------------------

CORO:

e-------------------------------------------
B-------------------------------------------
G----------9-*5--------9-*5-----------------
D----------9-----------9--------------------
A-----7-----------7-------------------------
E-------------------------------------------

e-------------------------------------------
B-------------------------------------------
G----------6-*5-----------------------------
D----------6------------7-*5----------------
A-----4-----------------7-------------------
E------------------5------------------------

No cuanto dolor
Cuanta traición, en mi corazón
Ahí te ves

DESPUÉS DEL CORO:

e--------------- ----------- ----------------------
B--------------- ----------- ----------------------
G----------6---- ------6-*6- ------6-*2-------7-*2-
D----------6---- ------6---- ------6----------7----
A-----4--------- -4--------- -4---------5----------
E--------------- ----------- ----------------------
                 ***********
                  PALM MUTE

e-------------------------------------------
B-------------------------------------------
G----------6-*2--------7--------9-----------
D----------6-----------7--------9-----------
A-----4-----------5--------7----------------
E-------------------------------------------
Verso 2:

C: Que es lo mas importante
  (Que no había nadie más que tú)

D: Para ti es más fácil olvidar
  (El verte a ti con alguien más)

C: Y ahora sé que no regresarás
  (Que ya nunca volverás)

D: Estaré aquí al despertar

ANTES DEL CORO:

e--------------- ----------- ----------------------
B--------------- ----------- ----------------------
G----------6---- ------6-*6- ------6-*2-------7-*2-
D----------6---- ------6---- ------6----------7----
A-----4--------- -4--------- -4---------5----------
E--------------- ----------- ----------------------
                 ***********
                  PALM MUTE

e-------------------------------------------
B-------------------------------------------
G----------6-*2--------7--------9-----------
D----------6-----------7--------9-----------
A-----4-----------5--------7----------------
E-------------------------------------------


e-------------------------------------------
B-------------------------------------------
G----------9-*5--------9-*5-----------------
D----------9-----------9--------------------
A-----7-----------7-------------------------
E-------------------------------------------

e-------------------------------------------
B-------------------------------------------
G----------6-*5-----------------------------
D----------6------------7-*5----------------
A-----4-----------------7-------------------
E------------------5------------------------


CORO:

e-------------------------------------------
B-------------------------------------------
G----------9-*5--------9-*5-----------------
D----------9-----------9--------------------
A-----7-----------7-------------------------
E-------------------------------------------

e-------------------------------------------
B-------------------------------------------
G----------6-*5-----------------------------
D----------6------------7-*5----------------
A-----4-----------------7-------------------
E------------------5------------------------

No cuanto dolor
Cuanta traición, en mi corazón
Ahí te ves

-----------------------------------------------------------

Tengo la canción hasta aquí...pero pronto la transcribo desde
la parte que empieza lo lento...Así que regresen para verla
luego
Suggest correction
Creating personal tab
Creating personal tab
You can edit any tab online and save it as your Personal.

You can edit, replace or remove any tab part or add personal notes – all changes will be seen only by you.

Personal tabs can be accessed anytime from any device, even offline.
Learn more »
Give kudos to tab author, rate the tab!
1 2 3 4 5
comments
print report bad tab
guest
Wanna post a correction for this tab? Suggest correction