Oops, an error
Loading. Please wait.

Ahí Te Ves tab

version 2
version 2

Whole song

Interactive

29 views 1 this week
no commentswrite comment
1 2 3 4 5
3 more votes to show rating
add to favorites
×
Save as Personal and add changes to this tab that will be seen only by you. Learn more ›
×
You can save this tab as Personal to edit and correct it or add notes. All changes will be seen only by you. Learn more »
launch autoscroll
font size
0
reset
how to read this tab
guitar tuner
edit
Autoscroll
slow
fast
+/-
esc
set tempo
stop
INTRO

                                                     ----|
e|------------------------------------------------------||
B|------------------------------------------------------||
G|------------------------------------------------------||
D|----6--------6-----6-------6---2-------2-----2------2-||
A|-4-----4-4------4-----4-4----0----0-0-----0-----00----||
E|------------------------------------------------------||se repite
                                                         |2 veces
e|------------------------------------------------------||
B|------------------------------------------------------||
G|------------------------------------------------------||
D|--------------------------------4-------4-----4-4-2-1-||
A|----2-------2-----2-------2--2-----2-2-----2----------||
E|-0-----0-0-----0-----0-0------------------------------||
                                                     ----|


En la vida todo no es felicidad...
e|-----------------------------|
B|-----------------------------|
G|-----------------------------|
D|----6--------6-----6-------6-|
A|-4-----4-4------4-----4-4----|
E|-----------------------------|

Son solamente momentos de alegría
e|--------------------------|
B|--------------------------|
G|--------------------------|
D|---2-------2-----2------2-|
A|-0----0-0-----0-----00----|
E|--------------------------|

Hay muchas cosas que te hacen despertar
e|----------------------------|
B|----------------------------|
G|----------------------------|
D|----------------------------|
A|----2-------2-----2-------2-|
E|-0-----0-0-----0-----0-0----|

Momentos que no se repetirán
e|--------------------------|
B|--------------------------|
G|--------------------------|
D|----4-------4-----4-4-2-1-|
A|-2-----2-2-----2----------|
E|--------------------------|

Gente que viene, gente que va
e|-----------------------------|
B|-----------------------------|
G|-----------------------------|
D|----6--------6-----6-------6-|
A|-4-----4-4------4-----4-4----|
E|-----------------------------|

Gente que tiene, gente que da
e|--------------------------|
B|--------------------------|
G|--------------------------|
D|---2-------2-----2------2-|
A|-0----0-0-----0-----00----|
E|--------------------------|

Gente que no volverás a ver jamás
e|----------------------------|
B|----------------------------|
G|----------------------------|
D|----------------------------|
A|----2-------2-----2-------2-|
E|-0-----0-0-----0-----0-0----|

Jamás... jamás... jamás...
e|--------------------------|
B|--------------------------|
G|--------------------------|
D|----4-------4-----4-4-2-1-|
A|-2-----2-2-----2----------|
E|--------------------------|


e|---------------------------------------------------|
B|---------------------------------------------------|
G|-6?-6--6-6--6?-6--6-6--6---------------------------|
D|-6?-6--6-6--6?-6--6-6--6---7?-7--7-7--7--7--7-7--7-|
A|-4?-4--4-4--4?-4--4-4--4---7?-7--7-7--7--7--7-7--7-|
E|---------------------------5?-5--5-5--5--5--5-5--5-|

e|-------------------------------------------------------|
B|-------------------------------------------------------|
G|---------------------------4--4--4-4--4--4--4-4--4-----|
D|-2--2--2-2--2--2--2-2--2---4--4--4-4--4--4--4-4--4--///|
A|-2--2--2-2--2--2--2-2--2---2--2--2-2--2--2--2-2--2--///|
E|-0--0--0-0--0--0--0-0--0----------------------------///|

e|---------------------------------------------------|
B|---------------------------------------------------|
G|-6?-6--6-6--6?-6--6-6--6---------------------------|
D|-6?-6--6-6--6?-6--6-6--6---7?-7--7-7--7--7--7-7--7-|
A|-4?-4--4-4--4?-4--4-4--4---7?-7--7-7--7--7--7-7--7-|
E|---------------------------5?-5--5-5--5--5--5-5--5-|

e|----------------------------------------------------|
B|----------------------------------------------------|
G|---------------------------4--4--4-4--4--4--4-4--4--|
D|-2--2--2-2--2--2--2-2--2---4--4--4-4--4--4--4-4--4--|
A|-2--2--2-2--2--2--2-2--2---2--2--2-2--2--2--2-2--2--|
E|-0--0--0-0--0--0--0-0--0----------------------------|

En la vida todo no es felicidad...
e|-------------------------|
B|-------------------------|
G|-6?-6--6-6--6?-6--6-6--6-|
D|-6?-6--6-6--6?-6--6-6--6-|
A|-4?-4--4-4--4?-4--4-4--4-|
E|-------------------------|

Son solamente momentos de alegría
e|-------------------------|
B|-------------------------|
G|-------------------------|
D|-7?-7--7-7--7--7--7-7--7-|
A|-7?-7--7-7--7--7--7-7--7-|
E|-5?-5--5-5--5--5--5-5--5-|

Hay muchas cosas que te hacen despertar
e|-------------------------|
B|-------------------------|
G|-------------------------|
D|-2--2--2-2--2--2--2-2--2-|
A|-2--2--2-2--2--2--2-2--2-|
E|-0--0--0-0--0--0--0-0--0-|

Momentos que no se repetirán
e|-------------------------|
B|-------------------------|
G|-4--4--4-4--4--4--4-4--4-|
D|-4--4--4-4--4--4--4-4--4-|
A|-2--2--2-2--2--2--2-2--2-|
E|-------------------------|

Gente que viene, gente que va
e|-------------------------|
B|-------------------------|
G|-6?-6--6-6--6?-6--6-6--6-|
D|-6?-6--6-6--6?-6--6-6--6-|
A|-4?-4--4-4--4?-4--4-4--4-|
E|-------------------------|

Gente que tiene, gente que da
e|-------------------------|
B|-------------------------|
G|-------------------------|
D|-7?-7--7-7--7--7--7-7--7-|
A|-7?-7--7-7--7--7--7-7--7-|
E|-5?-5--5-5--5--5--5-5--5-|

Gente que no volverás a ver jamás
e|-------------------------|
B|-------------------------|
G|-------------------------|
D|-2--2--2-2--2--2--2-2--2-|
A|-2--2--2-2--2--2--2-2--2-|
E|-0--0--0-0--0--0--0-0--0-|


Jamás... jamás... jamás...
e|-------------------------|
B|-------------------------|
G|-4--4--4-4--4--4--4-4--4-|
D|-4--4--4-4--4--4--4-4--4-|
A|-2--2--2-2--2--2--2-2--2-|
E|-------------------------|


e|---x-x-x-x-x-x-------x-x-x-x-x-x-------x-x-x-x-x-x-----|
B|---x-x-x-x-x-x-------x-x-x-x-x-x-------x-x-x-x-x-x-----|
G|-6?x-x-x-x-x-x-6---6?x-x-x-x-x-x-6---6-x-x-x-x-x-x-6---|
D|-6?x-x-x-x-x-x-6-7-6-x-x-x-x-x-x-6-7-6-x-x-x-x-x-x-6-7-|
A|-4?x-x-x-x-x-x-4-7-4-x-x-x-x-x-x-4-7-4-x-x-x-x-x-x-4-7-|
E|---x-x-x-x-x-x---5---x-x-x-x-x-x---5---x-x-x-x-x-x---5-|

e|---x-x-x-x-x-x----------------------------------|
B|---x-x-x-x-x-x----------------------------------|
G|-6?x-x-x-x-x-x-6-8-8-9--9--9--9-9--9--9--9-9--9-|
D|-6?x-x-x-x-x-x-6-8-8-9--9--9--9-9--9--9--9-9--9-|
A|-4?x-x-x-x-x-x-4-6-6-7--7--7--7-7--7--7--7-7--7-|
E|---x-x-x-x-x-x----------------------------------|

e|--------------------------------------------------|
B|--------------------------------------------------|
G|--------------------------6?-6--6-6--6?-6--6-6--6-|
D|-9--9--9-9--9--9--9-9--9--6?-6--6-6--6?-6--6-6--6-|
A|-9--9--9-9--9--9--9-9--9--4?-4--4-4--4?-4--4-4--4-|
E|-7--7--7-7--7--7--7-7--7--------------------------|

e|-------------------------|
B|-------------------------|
G|-------------------------|
D|-7?-7--7-7--7--7--7-7--7-|
A|-7?-7--7-7--7--7--7-7--7-|
E|-5?-5--5-5--5--5--5-5--5-|


CORO:

Noooo.......................
e|-------------------------|
B|-------------------------|
G|-9--9--9-9--9--9--9-9--9-|
D|-9--9--9-9--9--9--9-9--9-|
A|-7--7--7-7--7--7--7-7--7-|
E|-------------------------|

........ooooo........ cuanto
e|-------------------------|
B|-------------------------|
G|-------------------------|
D|-9--9--9-9--9--9--9-9--9-|
A|-9--9--9-9--9--9--9-9--9-|
E|-7--7--7-7--7--7--7-7--7-|


Doloooo.....................
e|-------------------------|
B|-------------------------|
G|-6?-6--6-6--6?-6--6-6--6-|
D|-6?-6--6-6--6?-6--6-6--6-|
A|-4?-4--4-4--4?-4--4-4--4-|
E|-------------------------|


........ooooor........Cuanta
e|-------------------------|
B|-------------------------|
G|-------------------------|
D|-7?-7--7-7--7--7--7-7--7-|
A|-7?-7--7-7--7--7--7-7--7-|
E|-5?-5--5-5--5--5--5-5--5-|

Traicióooo..................
e|-------------------------|
B|-------------------------|
G|-9--9--9-9--9--9--9-9--9-|
D|-9--9--9-9--9--9--9-9--9-|
A|-7--7--7-7--7--7--7-7--7-|
E|-------------------------|

........ooooon........ En mi
e|-------------------------|
B|-------------------------|
G|-------------------------|
D|-9--9--9-9--9--9--9-9--9-|
A|-9--9--9-9--9--9--9-9--9-|
E|-7--7--7-7--7--7--7-7--7-|

corazóoooo..................
e|-------------------------|
B|-------------------------|
G|-6?-6--6-6--6?-6--6-6--6-|
D|-6?-6--6-6--6?-6--6-6--6-|
A|-4?-4--4-4--4?-4--4-4--4-|
E|-------------------------|

........ooooon........Ahí te
e|-------------------------|
B|-------------------------|
G|-------------------------|
D|-7?-7--7-7--7--7--7-7--7-|
A|-7?-7--7-7--7--7--7-7--7-|
E|-5?-5--5-5--5--5--5-5--5-|

ves
e|---x-x-x-x-x-x-------x-x-x-x-x-x-------x-x-x-x-x-x---------------|
B|---x-x-x-x-x-x-------x-x-x-x-x-x-------x-x-x-x-x-x---------------|
G|-9-x-x-x-x-x-x-9---9-x-x-x-x-x-x-9---9-x-x-x-x-x-x-9---6-4-6-4-0-|
D|-9-x-x-x-x-x-x-9-9-9-x-x-x-x-x-x-9-9-9-x-x-x-x-x-x-9-9-6-4-6-4-0-|
A|-7-x-x-x-x-x-x-7-9-7-x-x-x-x-x?x-7-9-7-x-x-x-x-x-x-7-9-4-2-4-2-0-|
E|---x-x-x-x-x-x---7---x-x-x-x-x-x---7---x-x-x-x-x-x---7-----------|


e|---------------------------------------------------|
B|---------------------------------------------------|
G|-6?-6--6-6--6?-6--6-6--6---------------------------|
D|-6?-6--6-6--6?-6--6-6--6---7?-7--7-7--7--7--7-7--7-|
A|-4?-4--4-4--4?-4--4-4--4---7?-7--7-7--7--7--7-7--7-|
E|---------------------------5?-5--5-5--5--5--5-5--5-|

e|---------------------------------------------------|
B|---------------------------------------------------|
G|---------------------------4--4--4-4--4--4--4-4--4-|
D|-2--2--2-2--2--2--2-2--2---4--4--4-4--4--4--4-4--4-|
A|-2--2--2-2--2--2--2-2--2---2--2--2-2--2--2--2-2--2-|
E|-0--0--0-0--0--0--0-0--0---------------------------|

Que eras lo mas importante
e|-------------------------|
B|-------------------------|
G|-6?-6--6-6--6?-6--6-6--6-|
D|-6?-6--6-6--6?-6--6-6--6-|
A|-4?-4--4-4--4?-4--4-4--4-|
E|-------------------------|

Que no había nadie mas que tu
e|-------------------------|
B|-------------------------|
G|-------------------------|
D|-7?-7--7-7--7--7--7-7--7-|
A|-7?-7--7-7--7--7--7-7--7-|
E|-5?-5--5-5--5--5--5-5--5-|

Y para mi es mas fácil olvidar
e|-------------------------|
B|-------------------------|
G|-------------------------|
D|-2--2--2-2--2--2--2-2--2-|
A|-2--2--2-2--2--2--2-2--2-|
E|-0--0--0-0--0--0--0-0--0-|

Al verte a ti con alguien mas
e|-------------------------|
B|-------------------------|
G|-4--4--4-4--4--4--4-4--4-|
D|-4--4--4-4--4--4--4-4--4-|
A|-2--2--2-2--2--2--2-2--2-|
E|-------------------------|

Ya ahora se que no regresaras
e|-------------------------|
B|-------------------------|
G|-6?-6--6-6--6?-6--6-6--6-|
D|-6?-6--6-6--6?-6--6-6--6-|
A|-4?-4--4-4--4?-4--4-4--4-|
E|-------------------------|

Y que ya nunca volverás
e|-------------------------|
B|-------------------------|
G|-------------------------|
D|-7?-7--7-7--7--7--7-7--7-|
A|-7?-7--7-7--7--7--7-7--7-|
E|-5?-5--5-5--5--5--5-5--5-|

A estar aquí al despertar
e|-------------------------|
B|-------------------------|
G|-------------------------|
D|-2--2--2-2--2--2--2-2--2-|
A|-2--2--2-2--2--2--2-2--2-|
E|-0--0--0-0--0--0--0-0--0-|


despertar......despertar....
e|-------------------------|
B|-------------------------|
G|-4--4--4-4--4--4--4-4--4-|
D|-4--4--4-4--4--4--4-4--4-|
A|-2--2--2-2--2--2--2-2--2-|
E|-------------------------|


e|---x-x-x-x-x-x-------x-x-x-x-x-x-------x-x-x-x-x-x-----|
B|---x-x-x-x-x-x-------x-x-x-x-x-x-------x-x-x-x-x-x-----|
G|-6?x-x-x-x-x-x-6---6?x-x-x-x-x-x-6---6-x-x-x-x-x-x-6---|
D|-6?x-x-x-x-x-x-6-7-6-x-x-x-x-x-x-6-7-6-x-x-x-x-x-x-6-7-|
A|-4?x-x-x-x-x-x-4-7-4-x-x-x-x-x-x-4-7-4-x-x-x-x-x-x-4-7-|
E|---x-x-x-x-x-x---5---x-x-x-x-x-x---5---x-x-x-x-x-x---5-|

e|---x-x-x-x-x-x----------------------------------|
B|---x-x-x-x-x-x----------------------------------|
G|-6?x-x-x-x-x-x-6-8-8-9--9--9--9-9--9--9--9-9--9-|
D|-6?x-x-x-x-x-x-6-8-8-9--9--9--9-9--9--9--9-9--9-|
A|-4?x-x-x-x-x-x-4-6-6-7--7--7--7-7--7--7--7-7--7-|
E|---x-x-x-x-x-x----------------------------------|

e|--------------------------------------------------|
B|--------------------------------------------------|
G|--------------------------6?-6--6-6--6?-6--6-6--6-|
D|-9--9--9-9--9--9--9-9--9--6?-6--6-6--6?-6--6-6--6-|
A|-9--9--9-9--9--9--9-9--9--4?-4--4-4--4?-4--4-4--4-|
E|-7--7--7-7--7--7--7-7--7--------------------------|

e|-------------------------|
B|-------------------------|
G|-------------------------|
D|-7?-7--7-7--7--7--7-7--7-|
A|-7?-7--7-7--7--7--7-7--7-|
E|-5?-5--5-5--5--5--5-5--5-|


CORO:

Noooo.......................
e|-------------------------|
B|-------------------------|
G|-9--9--9-9--9--9--9-9--9-|
D|-9--9--9-9--9--9--9-9--9-|
A|-7--7--7-7--7--7--7-7--7-|
E|-------------------------|


........ooooo........ cuanto
e|-------------------------|
B|-------------------------|
G|-------------------------|
D|-9--9--9-9--9--9--9-9--9-|
A|-9--9--9-9--9--9--9-9--9-|
E|-7--7--7-7--7--7--7-7--7-|

Doloooo.....................
e|-------------------------|
B|-------------------------|
G|-6?-6--6-6--6?-6--6-6--6-|
D|-6?-6--6-6--6?-6--6-6--6-|
A|-4?-4--4-4--4?-4--4-4--4-|
E|-------------------------|


........ooooor........Cuanta
e|-------------------------|
B|-------------------------|
G|-------------------------|
D|-7?-7--7-7--7--7--7-7--7-|
A|-7?-7--7-7--7--7--7-7--7-|
E|-5?-5--5-5--5--5--5-5--5-|

Traicióooo..................
e|-------------------------|
B|-------------------------|
G|-9--9--9-9--9--9--9-9--9-|
D|-9--9--9-9--9--9--9-9--9-|
A|-7--7--7-7--7--7--7-7--7-|
E|-------------------------|

........ooooon........ En mi
e|-------------------------|
B|-------------------------|
G|-------------------------|
D|-9--9--9-9--9--9--9-9--9-|
A|-9--9--9-9--9--9--9-9--9-|
E|-7--7--7-7--7--7--7-7--7-|

corazóoooo..................
e|-------------------------|
B|-------------------------|
G|-6?-6--6-6--6?-6--6-6--6-|
D|-6?-6--6-6--6?-6--6-6--6-|
A|-4?-4--4-4--4?-4--4-4--4-|
E|-------------------------|

........ooooon........Ahí te
e|-------------------------|
B|-------------------------|
G|-------------------------|
D|-7?-7--7-7--7--7--7-7--7-|
A|-7?-7--7-7--7--7--7-7--7-|
E|-5?-5--5-5--5--5--5-5--5-|


ves
e|---------------------------|
B|---------------------------|
G|-9----9--------6----6------|
D|-9?---9-9----9-6----6-7----|
A|-7?---7-9----9-4----4-7----|
E|--?-----7----7--------5----|

                                                  -----|
e|---------------------------------------------------| |
B|---------------------------------------------------| |
G|---------------------------------------------------| |se repite
D|---9---11-9-7----------------6---7-6-4-------------| |2 veses
A|-7---7-----------9---11/9--4---4-----------7---9/7-| |
E|---------------7---7---------------------5---5-----| |
                                                  -----|

e|-------------------------------------------------------|
B|-----------------------------------------------9-10v-9-|
G|-9-9-9-9-11-9-8-9-9-9-9-11-9-8-9-9-9-9-11-9-11---------|
D|-------------------------------------------------------|
A|-------------------------------------------------------|
E|--?----------------------------------------------------|

e|-----------------------------------------------------------|
B|-----------------------------------------------9-10v-9-----|
G|-9-9-9-9-11-9-8-9-9-9-9-11-9-8-9-9-9-9-11-9-11---------9b9-|
D|-----------------------------------------------------------|
A|-----------------------------------------------------------|
E|--?--------------------------------------------------------|


CORO:

Noooo.......................
e|-------------------------|
B|-------------------------|
G|-9--9--9-9--9--9--9-9--9-|
D|-9--9--9-9--9--9--9-9--9-|
A|-7--7--7-7--7--7--7-7--7-|
E|-------------------------|

........ooooo........ cuanto
e|-------------------------|
B|-------------------------|
G|-------------------------|
D|-9--9--9-9--9--9--9-9--9-|
A|-9--9--9-9--9--9--9-9--9-|
E|-7--7--7-7--7--7--7-7--7-|

Doloooo.....................
e|-------------------------|
B|-------------------------|
G|-6?-6--6-6--6?-6--6-6--6-|
D|-6?-6--6-6--6?-6--6-6--6-|
A|-4?-4--4-4--4?-4--4-4--4-|
E|-------------------------|


........ooooor........Cuanta
e|-------------------------|
B|-------------------------|
G|-------------------------|
D|-7?-7--7-7--7--7--7-7--7-|
A|-7?-7--7-7--7--7--7-7--7-|
E|-5?-5--5-5--5--5--5-5--5-|

Traicióooo..................
e|-------------------------|
B|-------------------------|
G|-9--9--9-9--9--9--9-9--9-|
D|-9--9--9-9--9--9--9-9--9-|
A|-7--7--7-7--7--7--7-7--7-|
E|-------------------------|

........ooooon........ En mi
e|-------------------------|
B|-------------------------|
G|-------------------------|
D|-9--9--9-9--9--9--9-9--9-|
A|-9--9--9-9--9--9--9-9--9-|
E|-7--7--7-7--7--7--7-7--7-|

corazóoooo..................
e|-------------------------|
B|-------------------------|
G|-6?-6--6-6--6?-6--6-6--6-|
D|-6?-6--6-6--6?-6--6-6--6-|
A|-4?-4--4-4--4?-4--4-4--4-|
E|-------------------------|

........ooooon........Ahí te
e|-------------------------|
B|-------------------------|
G|-------------------------|
D|-7?-7--7-7--7--7--7-7--7-|
A|-7?-7--7-7--7--7--7-7--7-|
E|-5?-5--5-5--5--5--5-5--5-|

ves
e|-------------------------------------------------------|
B|-----------------------------------------------9-10v-9-|
G|-9-9-9-9-11-9-8-9-9-9-9-11-9-8-9-9-9-9-11-9-11---------|
D|-------------------------------------------------------|
A|-------------------------------------------------------|
E|--?----------------------------------------------------|

e|-----------------------------------------------------------|
B|-----------------------------------------------9-10v-9-----|
G|-9-9-9-9-11-9-8-9-9-9-9-11-9-8-9-9-9-9-11-9-11---------9b9-|
D|-----------------------------------------------------------|
A|-----------------------------------------------------------|
E|--?--------------------------------------------------------|

e|---x-x-x-x-x-x-------|
B|---x-x-x-x-x-x-------|
G|-9-x-x-x-x-x-x-9---9-|
D|-9-x-x-x-x-x-x-9-9-9-|
A|-7-x-x-x-x-x-x-7-9-7-|
E|---x-x-x-x-x-x---7---|

ESTA ES LA MEJOR CANCION
PACO JORGE GUILLO JAPI SON LO MEJOR
GRACIAS A LA SECTA EN ESPECIAL A LA VALE
A LA DIANITA Y A CARLITA LES QUIERO
PRECIOSAS Y A TODOS LOS
PANAS
Suggest correction
Creating personal tab
Creating personal tab
You can edit any tab online and save it as your Personal.

You can edit, replace or remove any tab part or add personal notes – all changes will be seen only by you.

Personal tabs can be accessed anytime from any device, even offline.
Learn more »
Give kudos to tab author, rate the tab!
1 2 3 4 5
comments
print report bad tab
guest
Wanna post a correction for this tab? Suggest correction