Oops, an error
Loading. Please wait.

Niños De La Calle tab

8 views 1 this week
no commentswrite comment
1 2 3 4 5
3 more votes to show rating
add to favorites
×
Save as Personal and add changes to this tab that will be seen only by you. Learn more ›
×
You can save this tab as Personal to edit and correct it or add notes. All changes will be seen only by you. Learn more »
launch autoscroll
font size
0
reset
how to read this tab
guitar tuner
edit
Autoscroll
slow
fast
+/-
esc
set tempo
stop
Chulpi Tostado            Niños de la Calle
Album: Hecho en Casa
Bueno ahi estan las quintas k usa la cancion y eso es en todo.
Oigan bn la cancion y le entienden bn el ritmo..pues ahi esta 99%
por fa calikenla y va por mi 4ta transcripcion gracias......
Si desean k sake alguna rola de este grupo manden a mi mail
cualquier duda o comentario : christmas_lug@

~~ :vibrato
(Mueves la cuerda pa arriba y abajo pk suene como efecto)
p : pull off (Ejemplo:3p2)
(Es deslizar la cuerda hacia atras tocando una sola vez)

Intro: [x2]        Lo repiten dos veces
         B5           G5           D5             A5
e |---------------------------------------------------------------|
B |---------------------------------------------------------------|
G |--44444--444----------------77777--777-------------------------|
D |--44444--444---55555--555---77777--777----77777---7777---------|
A |--22222--222---55555--555---55555--555----77777---7777---------|
E |---------------33333--333-----------------55555---5555---------|

****(Aki tokan la nota y la dejan sonar un tiempo)

     B5    G5    D5     A5
e |-------------------------------------------------------------------|
B |-------------------------------------------------------------------|
G |--4~~---4---------7~~---7-------------4~~---4---------7~~---7------|
D |--4~~---4-5~~---5-7~~---7-7~~--7777---4~~---4-5~~---5-7~~---7-7~~--|
A |--2~~---2-5~~---5-5~~---5-7~~--7777---2~~---2-5~~---5-5~~---5-7~~--|
E |----------3~~---3---------5~~--5555--------------------------------|

CORO:
    B5                 G5
Niños de la calle ya dejen de sufrir
    D5               A5             B5       G5
niños de la calle ya dejen de viiiiviir   asiiii
   D5           A5
de viiiiviiir asiiiii.....

     B5    D5 C#5    G5   D5 C#5     A5   D5 C#5  A5
e |--------------------------------------------------------|
B |--------------------------------------------------------|
G |--4444--7--6------------7--6--xx--------7--6--444444----| (2 Veces)
D |--4444--7--6---xx-5555--7--6--xx--7777--7--6--444444----|
A |--2222--5--4---xx-5555--5--4--xx--7777--5--4--222222----|
E |---------------xx-3333------------5555------------------|

  B5                 G5
Son tantas cosas que tienen que pasar
  D5                 A5
desde la calle hasta no tener papá
  B5               G5
no son un estorbo para esta sociedad
  D5                A5
niños de la calle son una realidad social

     B5    D5 C#5    G5   D5 C#5     A5   D5 C#5  A5
e |--------------------------------------------------------|
B |--------------------------------------------------------|
G |--4444--7--6------------7--6--xx--------7--6--444444----| (2 Veces)
D |--4444--7--6---xx-5555--7--6--xx--7777--7--6--444444----|
A |--2222--5--4---xx-5555--5--4--xx--7777--5--4--222222----|
E |---------------xx-3333------------5555------------------|

    B5                 G5
Niños de la calle ya dejen de sufrir
    D5               A5             B5       G5
niños de la calle ya dejen de  viiiiviir  asiiii
    D5           A5
de viiiiviiir asiiiii.....


     B5    D5 C#5    G5   D5 C#5     A5   D5 C#5  A5
e |--------------------------------------------------------|
B |--------------------------------------------------------|
G |--4444--7--6------------7--6--xx--------7--6--444444----| (2 Veces)
D |--4444--7--6---xx-5555--7--6--xx--7777--7--6--444444----|
A |--2222--5--4---xx-5555--5--4--xx--7777--5--4--222222----|
E |---------------xx-3333------------5555------------------|

  B5                  G5
Niños de la calle se drogan sin parar
  D5                  A5
no tienen un rumbo pronto donde van estar
  B5                 G5
niños de la calle asaltan sin piedad
  D5                  A5
pronto van a terminar en la correccional

     B5    D5 C#5    G5   D5 C#5     A5   D5 C#5  A5
e |--------------------------------------------------------|
B |--------------------------------------------------------|
G |--4444--7--6------------7--6--xx--------7--6--444444----| (2 Veces)
D |--4444--7--6---xx-5555--7--6--xx--7777--7--6--444444----|
A |--2222--5--4---xx-5555--5--4--xx--7777--5--4--222222----|
E |---------------xx-3333------------5555------------------|

SOLO:  (Muy facil....suena bn lo repiten dos veces)
e|----------------------------------------------------|
B|--12-12-12-11-15-14~~---12p11--10-10-10-12-15-14~~--|
G|----------------------------------------------------|  X 2
D|----------------------------------------------------|
A|----------------------------------------------------|
E|----------------------------------------------------|

e|-----------------------------|
B|--11p10--9-9-9-10-15-14-12~~-|
G|-----------------------------|
D|-----------------------------|
A|-----------------------------|
E|-----------------------------|

Ahi esta para los k kerian esta cancion ke describe una realidad
en nuestro pekeño pero grande por su gente.....Ecuador.......100%
..Suerte chao.................

            
            
Suggest correction
Creating personal tab
Creating personal tab
You can edit any tab online and save it as your Personal.

You can edit, replace or remove any tab part or add personal notes – all changes will be seen only by you.

Personal tabs can be accessed anytime from any device, even offline.
Learn more »
Give kudos to tab author, rate the tab!
1 2 3 4 5
comments
print report bad tab
guest
Wanna post a correction for this tab? Suggest correction