Oops, an error
Loading. Please wait.

Güajira Mora tab

47 views 1 this week
no commentswrite comment
1 2 3 4 5
3 more votes to show rating
add to favorites
×
Save as Personal and add changes to this tab that will be seen only by you. Learn more ›
×
You can save this tab as Personal to edit and correct it or add notes. All changes will be seen only by you. Learn more »
launch autoscroll
font size
0
reset
how to read this tab
guitar tuner
edit
Autoscroll
slow
fast
+/-
esc
set tempo
stop
INTRO:

En el acompañamiento van 3 notas: 
        
      F#m-A#m---C
     e----------------------------------
     b----------------------------------
     g---------------------------------- 
     d-------------2----5---------------
     a---------4-3----------------------
     e-1--4-3---------------------------


     e----------------------------------
     b----------------------------------
     g---------------------------------- 
     d----------------------------------
     a---------4------------------------
     e-1--4-3-----0---------------------

  
     CORO:  
   
     F#m      A#m   C
     Si tus locuras son de temer
     F#m      A#m     C
     yo mil diabluras bien puedo hacer (Bis)


     
     F#m    A#m   C
  a. El que sabe cantar bien
     F#m     A#m   C  
     no hable mal de aquel que canta
     F#m       A#m   C
     pues unos saben lo que cantan man
     F#m     A#m          C
     y otros saben lo que cantan man


     CORO


     F#m     A#m        C
  b. Por el río del taguando mamita
     F#m     A#m        C
     un sombrero va nadando mijita
             F#m  A#m    C                     F#m
     y en la topa va diciendo hay mamita de mi amor
        A#m           C
     mi amor se esta acabando cosita ricas


     CORO
       
      
     F#m   A#m       C
  c. Beber señores beber 
     F#m    A#m          C
     que no hay cosa mas bonita
     F#m   A#m         C
     si beber la vista quita
     F#m     A#m          C
     yo he de beber hasta ver


     CORO:  
   
     F#m      A#m   C
     Si tus locuras son de temer
     F#m      A#m     C
     yo mil diabluras bien puedo hacer 
     F#m      A#m   C
     Si tus locuras son de temer
     F#m      A#m     C                 
     yo mil diabluras bien puedo hacerrr... 

       
     e----------------------------------
     b----------------------------------
     g---------------------------------- 
     d-----3-----3-4-5------------------
     a--5--1--5--1-2-3------------------
     e--3-----3-------------------------

     e----------------------------------
     b----------------------------------
     g---------------------------------- 
     d-----3----------------------------
     a--5--1----5-3-2------------------
     e--3-------3-1-0------------------

     
     Con las notas finales en la tablatura 
     canta lo siguiente:

     A mi me dicen picante
     como el aji bodegueño
     como no podia picar
     si soy un diablo Quiteño

     e----------------------------------
     b----------------------------------
     g---------------------------------- 
     d-----3-----3-4-5------------------
     a--5--1--5--1-2-3------------------
     e--3-----3-------------------------

     

     ¡Que viva el Rock Ecuatoriano!

      Esta rola es exelente para tocarla 
      y muy facil, chequenla.

      Esta tablatura y acordes no hubieran sido
      posibles sin la colaboración de Santigo B. 
      quien posee el cd original.

            
            
Suggest correction
Creating personal tab
Creating personal tab
You can edit any tab online and save it as your Personal.

You can edit, replace or remove any tab part or add personal notes – all changes will be seen only by you.

Personal tabs can be accessed anytime from any device, even offline.
Learn more »
Give kudos to tab author, rate the tab!
1 2 3 4 5
comments
print report bad tab
guest
Wanna post a correction for this tab? Suggest correction