Oops, an error
Loading. Please wait.

Enemigo Público tab

131 views 1 this week
no commentswrite comment
1 2 3 4 5
3 more votes to show rating
add to favorites
×
Save as Personal and add changes to this tab that will be seen only by you. Learn more ›
×
You can save this tab as Personal to edit and correct it or add notes. All changes will be seen only by you. Learn more »
launch autoscroll
font size
0
reset
how to read this tab
guitar tuner
edit
Autoscroll
slow
fast
+/-
esc
set tempo
stop
Existen 2 versiones de esta canción:
- Enemigo Público del disco: Inadaptados
- Aprieta el Gatillo del disco: Colgado por tí


INTRO: En la versión de "Enemigo Público" (Inadaptados)
[A E C D]

Siendo (toda la canción):
e|-------------------------------------
B|-------------------------------------
G|---9---------------------------------
D|---7-------9-------5-------7---------
A|-----------7-------3-------5---------
E|-------------------------------------
     A       E       C       D

INTRO: En la versión de "Aprieta el Gatillo" (Colgado por tí)
e|-------------------------------------------------------
B|-------------------------------------------------------
G|-------------------------------------------------------
D|-------------------------------------------------------
A|-------------------------------------------------------
E|---5---7---10---9-----5---7---10---9--10--10--12--12--- X15 (aprox)


A               E
Enemigo público número uno
       C                  D
Porque no aguantas que te joda ninguno
    A            E
Sin encontrar un puto oficio
   C              D
Porque eres carne de presidio

G                    C        D
Que hacer, que hacer te preguntas
G            C       D
No vas a ser un pardillo
G                    C        D
Que hacer, que hacer te preguntas
A                 E       C       D
   Aprieta el gatillo


Tu chupa de cuero claveteada
De navajazos está rasgada
Tu vida es un hueco en el tiempo
Y vives como vive un muerto


Que hacer, que hacer te preguntas
No vas a ser un pardillo
Que hacer, que hacer te preguntas


SOLO DE BAJO (PARTE REGGAE)
G|--------------------------------------------------------
D|-------------------------------------2------------------
A|---------------7-7-7-7-7-7-7-3--3--3---3-5-5-5-5-5-5-5--
E|---5--5--5---5------------------------------------------

G|--------------------------------------------------------
D|-------------------------------------2---------------7--
A|---------------7-7-7-7-7-7-7-3--3--3---3-5-5-5-5-5-5----
E|---5--5--5---5------------------------------------------

Enemigo público número uno
Porque no aguantas que te joda ninguno
Sin encontrar un puto oficio
Porque eres carne de presidio

Tu chupa de cuero claveteada
De navajazos está rasgada
Tu vida es un hueco en el tiempo
Y vives como vive un muerto

[A E C D] Aqui se toca mas rápido que en el resto de la canción
          y "A" en la 6ª cuerda.

A                 E       C       D
    Aprieta el gatillo                     X5


    Aprieta el gatillo


---------------------------------------------------------------------

Lo único que cambia en cada versión es:
- el INTRO
- el acorde "A"
  (siendo en "Enemigo Público" en la 4ª cuerda
   y en "Aprieta el Gatillo" en la 6ª cuerda)
  (SOLO LA GUITARRA, EL BAJO SIEMPRE EN LA CUERDA 6)
- SOLO DE BAJO, en la versión de "Enemigo Público"
  el bajo hace una especie de solo
  y ahi la canción tiene un ritmo REGGAE

            
            
Suggest correction
Creating personal tab
Creating personal tab
You can edit any tab online and save it as your Personal.

You can edit, replace or remove any tab part or add personal notes – all changes will be seen only by you.

Personal tabs can be accessed anytime from any device, even offline.
Learn more »
Give kudos to tab author, rate the tab!
1 2 3 4 5
comments
print report bad tab
guest
Wanna post a correction for this tab? Suggest correction