Oops, an error
Loading. Please wait.

Esto Saldrá Bien tab

118 views 1 this week
no commentswrite comment
1 2 3 4 5
3 more votes to show rating
add to favorites
×
Save as Personal and add changes to this tab that will be seen only by you. Learn more ›
×
You can save this tab as Personal to edit and correct it or add notes. All changes will be seen only by you. Learn more »
launch autoscroll
font size
0
reset
how to read this tab
guitar tuner
edit
Autoscroll
slow
fast
+/-
esc
set tempo
stop
Aqui va el mejor tema para mi gusto de los zika,
El otro que anda rulando por ahi esta todo mal, no coincide ni una nota,
y es imposible tocarla con esas notas, esta que voy a poner es casi casi
clavada a la original, salvo por el solo, que si alguien lo saca entero
pues que lo mande,

Bien,

Empieza asi. Se escuchan dos guitarras, la ritmica hace esto:

-------------------------------------------------------- Este es la base de
-------------------------------------------------------- toda la cancion,
---5---7----7-7-7---------------------------------------
---5---7----5-5-5-7-7-7-9-9-9--5-7----------------------
---3---5----------5-5-5-7-7-7--3-5----------------------
--------------------------------------------------------

Y el punteillo inicial es este: se hace por encima de la ritmica,


-----------------------------------------------
-----------------------------------5-----------
---------------------------7-----7---5------7--
--4-5---4-5--4-5--4-5--4-5---4-5--------4-5----
-----------------------------------------------
-----------------------------------------------


Empieza la cancion:

-------------------------------------------------------
-------------------------------------------------------
-----7---7---7--7---7---7-5--7-----7-7-7-7-7-7-7-5---7-
---5---5---5--5---5---5---5--7-----5-5-5-5-5-5-5-5---7-
--------------------------3--5-------------------3---5-
-------------------------------------------------------


-------------------------
----------5---------5----
--------7---5-----7------
----4-5-------4-5--------
-------------------------
-------------------------

Y durante toda la cancion lleva la base de arriba, al principio.

-----------------------------------------
-----------------------------------------
----7-7-7--------------5--7--------------
----5-5-5-7-7-7-9-9-9--5--7--------------
----------5-5-5-7-7-7--3--5--------------
-----------------------------------------

El estribillo es asi:

----------------------------------------
----------------------------------------
---5-5-5-5--7-7--7-7-7/6-7-7-7----------
---5-5-5-5--7-7--5-5-5/4-5-5-5----------
---3-3-3-3--5-5-------------------------
----------------------------------------

y la ultima vez acaba siempre en A5, osea en

-------------------------
------------------------
------------------------
---7-7-7-7--------------
---7-7-7-7--------------
---5-5-5-5--------------

Con todo esto ya podeis tocar la cancion, excepto el solo, no
logro sacarlo bien entero,es demasiado para mi!!!
Pero bueno, se le aproxima bastante a la realidad con esta tablatura,
Es bastante facil, asi que para los que empezais os ira bien,

            
            
Suggest correction
Creating personal tab
Creating personal tab
You can edit any tab online and save it as your Personal.

You can edit, replace or remove any tab part or add personal notes – all changes will be seen only by you.

Personal tabs can be accessed anytime from any device, even offline.
Learn more »
Give kudos to tab author, rate the tab!
1 2 3 4 5
comments
print report bad tab
guest
Wanna post a correction for this tab? Suggest correction