Oops, an error
Loading. Please wait.

Murciélago tab

26 views 1 this week
no commentswrite comment
1 2 3 4 5
3 more votes to show rating
add to favorites
×
Save as Personal and add changes to this tab that will be seen only by you. Learn more ›
×
You can save this tab as Personal to edit and correct it or add notes. All changes will be seen only by you. Learn more »
launch autoscroll
font size
0
reset
how to read this tab
guitar tuner
edit
Autoscroll
slow
fast
+/-
esc
set tempo
stop
Intro: E

1-----------------------------------------
2-----------------------------------------
3-----------------------------------------
4-4-------------------4-------------2-----
5---5---2-2h4-4-5vv-----5---2-2h4-2-------
6-----4-------------------4---------------

1-----------------------------------------
2-----------------------------------------
3-----------------------------------------
4-4---------------------4-------------2---
5---5---2-2 - 2h4-2-5vv---5---2-2h4-2-----
6-----4---------------------4-------------

1-----------------------------------------
2-----------------------------------------
3-----------------------------------------
4-----------------------------------------
5----2-2h4-2------------------------------
6-4----------0----------------------------


Piano: Em/C# - Cmaj - E4 - E


E                Am7
Alabado sea el señor,
      Cmaj                     E4     E
por darnos vida, ya es la salvación
E                   Am7
sin embargo una distracción
  Cmaj       Em/C#    G      Em
cuesta millones, en desilusiones.

E                  Am7
Parecida a una tarde gris
  Cmaj                          E4     E
lo que seguían a un ardor en mi,
E                   Am7
el murciélago empezó a morder
 Cmaj     Em/C#   G        Em
donde reposan las almas hermosas.

Inter: Bm7 - Cmaj - Bm7 - Cmaj

    Em             D
La luz fue tu criterio,
        Cmaj               A
no se puede tornar oscuridad.
    Am7            Bm7
La luz fue tu criterio,
             Cmaj     D
retornar al mar,
                   E
respirar hacia el mar.


Base = E

1-----------------------------------------
2-----------------------------------------
3-----------------------------------------
4-4-------------------4-------------2-----
5---5---2-2h4-4-5vv-----5---2-2h4-2-------
6-----4-------------------4---------------

1-----------------------------------------
2-----------------------------------------
3-----------------------------------------
4-4---------------------4-----------------
5---5---2-2 - 2h4-2-5vv---5---2-2h4-2-----
6-----4---------------------4---------0---


   E                      Am7
Tu mando es la porción de fe
     Cmaj              E4  E
cercado por donde miras
     Em                  Am7
la balsa flota rota al revés
    Cmaj                     Bm7
la luz de afuera es un misterio.

Solo (Adaptado a guitarra)

1--------------------------------------
2--------------------------------------
3-4--2------------4--5-4-2-------------
4------5-4-2---------------5-4-2-------
5------------5-------------------5-----
6--------------------------------------

1--------------------------------------
2--------------------------------------
3---------------------------2----------
4--5-4---4-2---4-2----2-4-5------------
5------5-----5------5------------------
6--------------------------------------


Con base: Bm7 - C7maj
1--------------------------------------
2--------------------------------------
3-4--2------------4--5-4-2-------------
4------5-4-2---------------5-4-2-------
5------------5-------------------5-----
6--------------------------------------

1--------------------------------------
2--------------------------------------
3-4--2---------------------------------
4------5-4-2---4-2---------------------
5------------5-------------------------
6--------------------------------------


Bm7                 Cmaj
Nunca lo vi venir así
       Bm7              Cmaj
suelo ser amigo del amanecer,
Bm7                 Cmaj
nunca lo vi venir así
Bm7                          Cmaj
para ir al cielo no hay que rendir.


La luz fue tu criterio ...

        Cmaj      D                     Am7
El que añora espera que le pasen las horas
      Bm7                     Cmaj      Em
al hombre se lo lleva el viento,
               Bm7
el viento se hará.

Así es la historia
hay que remar en olas celosas
la balsa se la lleva el viento
el viento se hará.

Cmaj7 - Bm7

Cmaj           Em/C#
Remando las olas
      G           Em
que besan la aurora
Cmaj        Em/C#      G          Em
donde reposan las almas hermosas.

Solo: Cmaj - Em/C# - G - Em 2 veces - Em
      E - Bm7 - Cmaj - Cdim - G - Em
Suggest correction
Creating personal tab
Creating personal tab
You can edit any tab online and save it as your Personal.

You can edit, replace or remove any tab part or add personal notes – all changes will be seen only by you.

Personal tabs can be accessed anytime from any device, even offline.
Learn more »
Give kudos to tab author, rate the tab!
1 2 3 4 5
comments
print report bad tab
guest
Wanna post a correction for this tab? Suggest correction