Oops, an error
Loading. Please wait.

Código Morsa tab

version 1
version 1

Whole song

54 views 1 this week
no commentswrite comment
1 2 3 4 5
3 more votes to show rating
add to favorites
×
Save as Personal and add changes to this tab that will be seen only by you. Learn more ›
×
You can save this tab as Personal to edit and correct it or add notes. All changes will be seen only by you. Learn more »
launch autoscroll
font size
0
reset
how to read this tab
guitar tuner
edit
Autoscroll
slow
fast
+/-
esc
set tempo
stop
               Am      G       C
e|-----3---3h5-5--5----------------------3---3h5-5-5-|
B|-3s5---5-----5--5-3h5-3----6-5--55-3s5---5-----5-5-|
G|-------------5--5-----4s7----5--55-------------5-5-|
D|-------------7--7-----5------5--55-------------7-7-|
A|-------------7--7------------3--33-------------7-7-|
E|-------------5--5------------------------------5-5-|

   Am         F              G#                   ...y arranca enseguida
e|-------------------3-------------------------------4p3---|
B|-3h5p3---3------3-----3------------------4-4p3---------6-|
G|-------5------5---5------5-------------5-------5---------|
D|------------3--------------3---3-4-5-6-----------6-------|
A|---------------------------------------------------------|
E|---------------------------------------------------------|

C        Am        G      C
Cartas de amor en código morse
             Am          G          F
Te miro y me ves como si hablara en chino
                   G#
mandarín, japonés
                     C
o en idioma de bebés

Sueños de a dos en noches de insomnio
Te estiro mis brazos y te hundo en el miedo
Otra vez el fantasma del chasco
que te mira con su cara de asco

   C    G      Am       G
Y vos ahí, que ya no me ves
          Am      G
Aunque esté a tu lao
     F        G
tirado a tus pies

Lenguas que empujan sonidos que hieren
Después del coma, luna de miel en el Borda
Menos mal que estamos enamorados
y por suerte no estamos armados

Y vos ahí, mirando pasar
mi error diez mil
un fracaso más

C              D#
El río está en la gota
        F             D#
en lo chiquitito está la vida
     C         D#
Cuando late tu corazón
F
bombea el motor de este mundo

   Am        G
Y dame tu alma otra vez
    F
voy a cuidarla vas a ver
   Am            G
Y dame tu alma una vez más
    F                    C   G
voy a regarla todos los días
   F
ieeeee
           C G F   C
Todos los díiiiiias

Esto es lo que pude sacar escuchando el  que esta bien xD
Me falto la parte del solo.

Vamos la ciencia nomas.
Suggest correction
Creating personal tab
Creating personal tab
You can edit any tab online and save it as your Personal.

You can edit, replace or remove any tab part or add personal notes – all changes will be seen only by you.

Personal tabs can be accessed anytime from any device, even offline.
Learn more »
Give kudos to tab author, rate the tab!
1 2 3 4 5
comments
print report bad tab
guest
Wanna post a correction for this tab? Suggest correction