Oops, an error
Loading. Please wait.

Código Morsa tab

version 2
version 2

Whole song

53 views 1 this week
no commentswrite comment
1 2 3 4 5
3 more votes to show rating
add to favorites
×
Save as Personal and add changes to this tab that will be seen only by you. Learn more ›
×
You can save this tab as Personal to edit and correct it or add notes. All changes will be seen only by you. Learn more »
launch autoscroll
font size
0
reset
how to read this tab
guitar tuner
edit
Autoscroll
slow
fast
+/-
esc
set tempo
stop
Hola bueno la versión que ya fue enviada de este tema esta bastante bien
lo único que falta son unos acordes de paso entre nota y nota.
Lo que queria dejar ahora es el solo final que esta tocado con slide
aunque si no lo tienen igual suena bastante bien.


1?-----------------------------------------------------------
2?---3/5-------5---6--6/8---3/4------3-44--3-4-3-------------
3--------5----------------------2----------------------------
4----------5----------------------3--------------------------
5------------------------------------------------------------
6 ---------------------------------------------------------


1------------------------------------------------------------
2----4/5---------5---6?-6/8---8/10----10-11-11-10-11-10------
3---------5------------------------8-------------------------
4------------5-----------------------------------------------
5------------------------------------------------------------
6------------------------------------------------------------


1------------------------------------------------------------
2----4/5?-5-6?-6/8--3/4------3-44-3-4-3---4/5-----5-6---6/8--
3-----------------------2---------------------5--------------
4-------------------------3---------------------5------------
5------------------------------------------------------------
6------------------------------------------------------------


1---------------------------------------------------------
2----3/4--------0-1-3---0---1--------------------------------
3---------2---2-------------0--------------------------------
4-----------3---------------2--------------------------------
5---------------------------3--------------------------------
6---------------------------------------------------------

espero que este bien ya que es mi primera transcripción saludos
y aguante cientificos una banda que esta creciendo. dudas o comentarios
ro_kobe8@
Suggest correction
Creating personal tab
Creating personal tab
You can edit any tab online and save it as your Personal.

You can edit, replace or remove any tab part or add personal notes – all changes will be seen only by you.

Personal tabs can be accessed anytime from any device, even offline.
Learn more »
Give kudos to tab author, rate the tab!
1 2 3 4 5
comments
print report bad tab
guest
Wanna post a correction for this tab? Suggest correction