Oops, an error
Loading. Please wait.

Yo Soy tab

26 views 1 this week
no commentswrite comment
1 2 3 4 5
3 more votes to show rating
add to favorites
×
Save as Personal and add changes to this tab that will be seen only by you. Learn more ›
×
You can save this tab as Personal to edit and correct it or add notes. All changes will be seen only by you. Learn more »
launch autoscroll
font size
0
reset
how to read this tab
guitar tuner
edit
Autoscroll
slow
fast
+/-
esc
set tempo
stop
Intro:
e-----------------|----------------|
B-----------------|----------------|
G-----4-------4---|----5-------5---| X2
D---6---6---6---6-|--5---5---5---5-|
A-7-------7-------|7-------7-------|
E-----------------|----------------|

e----------------|----------------|
B----------------|----------------|
G-----4-------4--|-----5-------5--|
D---6---6---6---6|---5---5---5---5|
A-7-------7------|-7-------7------|
E----------------|----------------|
   Hoy me siento indestructible

e----------------|-----------------|
B----------------|-----------------|
G-----4-------4--|-----5-------5---|
D---6---6---6---6|---5---5---5---5-|
A-7-------7------|-7-------7-------|
E----------------|-----------------|
  altamente combustible

e----------------|----------------|
B----------------|----------------|
G----------------|----------------|
A-----0-------0--|-----0-------0--|
D---3---3---3---3|---2---2---2---2|
E-1-------1------|-0-------0------|
   hoy estoy hecho de la

e----------------|-----------------|
B----------------|-----------------|
G----------------|-----------------|
A-----0-------0--|-----0-------0---|
D---3---3---3---3|---3---3---3---3-|
E-1-------1------|-2-------2-------|
  materia de la eternidad

e----------------|----------------|
B----------------|----------------|
G----------------|----------------|
D-----2-------2--|-----2-------2--|
A---3---3---3---3|---3---3---3---3|
E-3-------3------|-4-------4------|
   hoy puedo estornudar

e----------------|----------------|
B----------------|----------------|
G----------------|----------------|
D-----3-------3--|-----2-------2--|
A---5---5---5---5|---2---2---2---2|
E-5-------5------|-4-------4------|
  y barrer con toda la humanidad

e----------------|----------------|
B----------------|----------------|
G-----4-------4--|-----5-------5--|
D---6---6---6---6|---5---5---5---5|
A-7-------7------|-7-------7------|
E----------------|----------------|
   hoy me siento    como Alá

e----------------|----------------|
B----------------|----------------|
G-----4-------4--|-----5-------5--|
D---6---6---6---6|---5---5---5---5|
A-7-------7------|-7-------7------|
E----------------|----------------|
  y la santisima trinidad

e----------------|----------------|
B----------------|----------------|
G----------------|----------------|
A-----0-------0--|-----0-------0--|
D---3---3---3---3|---2---2---2---2|
E-1-------1------|-0-------0------|
   hoy soy Perón y Evita

e----------------|-----------------|
B----------------|-----------------|
G----------------|-----------------|
A-----0-------0--|-----0-------0---|
D---3---3---3---3|---3---3---3---3-|
E-1-------1------|-2-------2-------|
  contra la oligarquia

e----------------|----------------|
B----------------|----------------|
G----------------|----------------|
D-----2-------2--|-----2-------2--|
A---3---3---3---3|---3---3---3---3|
E-3-------3------|-4-------4------|
   hoy soy Ho Chi Minh

e----------------|-----------------|
B----------------|-----------------|
G----------------|-----------------|
D-----3-------3--|-----2-------2---|
A---5---5---5---5|---2---2---2---2-|
E-5-------5------|-4-------4-------|
  Guevara, Castro Y San Martin

e----------------|----------------|
B----------------|----------------|
G----------------|----------------|
D-----2-------2--|-----2-------2--|
A---3---3---3---3|---3---3---3---3|
E-5-------5------|-3-------3------|
   pueden derretirse los polos

e----------------|----------------|---------------|
B----------------|----------------|---------------|
G----------------|----------------|---------------|
D-----2-------2--|-----0-------0--|----0-------0--|
A---3---3---3---3|---3---3---3---3|--3---3---3---3|
E-4-------4------|-1-------1------|-2------2------|
   puede irse al carajo el Dow Jones

e----------------|----------------|
B----------------|----------------|
G----------------|----------------|
D-----2-------2--|-----1-------1--|
A---3---3---3---3|---3---3---3---3|
E-3-------3------|-4-------4------|
  puede quebrar Microsoft, pueden

e----------------|----------------|
B----------------|----------------|
G----------------|----------------|
D-----2-------2--|-----1-------1--|
A---3---3---3---3|---3---3---3---3|
E-3-------3------|-4-------4------|
  bombardear al Vaticano, que a mi hoy

e----------------|----------------|
B----------------|----------------|
G----------------|----------------|
D-----2-------2--|-----1-------1--|
A---3---3---3---3|---3---3---3---3|
E-3-------3------|-4-------4------|
  sólo me iimportan mis hijos y yo

e----------------|----------------|
B----------------|----------------|
G----------------|----------------|
D-----2-------2--|-----1-------1--|
A---3---3---3---3|---3---3---3---3|
E-3-------3------|-4-------4------|
  sóooolo          Yoookooo

e----------------|---------------|
B----------------|---------------|
G----------------|---------------|
D-----2-------2--|-----2-------2-|
A---4---4---4---4|---4---4---4---|
E-5-------5------|-5-------5-----|
  y yooooo

    Puente:

              E  -  C  -  G  -  B

esta parte escuchenla porque es medio jodida:


e-------------------|-------------------|
B-------------------|-------------------|  este riff
G-12-12h9h12--------|-12-12h9h12--------|  lo pueden
D------------9------|------------9------|  reemplazar
A--------------10---|--------------10---|  por E
E-----------------12|-----------------12|
   voy a sembrar...

e--------------------|--------------------|
B--------------------|--------------------|
G-12-12h9h12---------|-12-12h9h12---------|  este por C
D------------10------|------------10------|
A---------------10---|---------------10---|
E------------------12|------------------12|
                       con Satán...

e--------------------|--------------------|
B--------------------|--------------------|
G-12-12h7h12---------|-12-12h7h12---------|  este por G
D------------10------|------------10------|
A---------------10---|---------------10---|
E------------------12|------------------12|
                       donde caen los...

e-------------------|-------------------|
B-------------------|-------------------|
G-11-11h8h11--------|-11-11h8h11--------|    este por B
D------------9------|------------9------|
A--------------10---|--------------10---|
E-----------------11|-----------------11|
                       allá en Saigón


Durante el Solo van las notas:

E  -  C  -  G  -  B


Aguante la ciencia!!!

            
            
Suggest correction
Creating personal tab
Creating personal tab
You can edit any tab online and save it as your Personal.

You can edit, replace or remove any tab part or add personal notes – all changes will be seen only by you.

Personal tabs can be accessed anytime from any device, even offline.
Learn more »
Give kudos to tab author, rate the tab!
1 2 3 4 5
comments
print report bad tab
guest
Wanna post a correction for this tab? Suggest correction