Oops, an error
Loading. Please wait.

El Sirenito tab

66 views 3 this week
no commentswrite comment
1 2 3 4 5
3 more votes to show rating
add to favorites
×
Save as Personal and add changes to this tab that will be seen only by you. Learn more ›
×
You can save this tab as Personal to edit and correct it or add notes. All changes will be seen only by you. Learn more »
launch autoscroll
font size
0
reset
how to read this tab
guitar tuner
edit
Autoscroll
slow
fast
+/-
esc
set tempo
stop
INTRO
guit. 1 ===> distr.
e|-----------------------------------------------------------------------------|
B|---------------9----------------9----------------9----------------9----XXXX--|
G|---------------9----------------9----------------9----------------9----XXXX--|
D|---------------9----------------9----------------9----------------9----XXXX--|
A|---------------7----------------7----------------7----------------7----XXXX--|
E|---0-3-0-3-0-0------0-3-0-3-0-0------0-3-0-3-0-0------0-3-0-3-0-0------------|


SOLO ===>
                           B                               E 
e|---7-7-7-7-----------------9-9-9-9---------------------------|
B|----------9-9-9-9------------------10-10-10-10--7-7-7-7------|
G|-----------------9-9-9-9--------------------------------9----|
D|------------------------8------------------------------------|
A|-------------------------------------------------------------|
E|-------------------------------------------------------------|

                           B                               E
e|---7-7-7-7-----------------9-9-9-9---------------------------|
B|----------9-9-9-9------------------10-10-10-10--7-7-7-7------|
G|-----------------9-9-9-9--------------------------------9----|
D|------------------------8------------------------------------|
A|-------------------------------------------------------------|
E|-------------------------------------------------------------|

FIG.2 ===>CON WAH WAH
     E                                    E                                      
e|-----------------------------------------------------|
B|---9-9--7-------9-9-7-------9-9-7--------------------|
G|----------9--6--------9--6--------9--6-6-------------|
D|-----------------------------------------------------|
A|-----------------------------------------------------|
E|-----------------------------------------------------|


RIFF.1                        RIFF.2
e|------------------|             |--------------------|
B|------------------|            |--------------------|
G|------------------|            |--------------------|
D|------------------|            |--------------------|
A|------------------|            |----4---------4-----|
E|---7-9-7---7-9-7--|            |--7---7-----7---7---|


ESTROFAS
                                       B
Cuando buceaba por el fondo del oceano
                          E       
me enamore de una bellisima sirena
                              B      
fuera del mar sin bacilar pedi su mano
                              E      
y nos casamos en las playas de caleta

         PM.......
       A
pasaron mas de nueve meses
              A5 G#5   
sin niguna novedad
A5 A#5   B
pero cerquita de los trece
                          F#5 F#5 B5 B5 B5===> X2
se enfermo de gravedad

CORO:  
                    RIFF.1
tuvimos un sirenito
                        RIFF.2
justo al a%io de casados
                       RIFF.1
con la cara de angelito
                     RIFF.2
pero cola de pescado

                    RIFF.1
tuvimos un sirenito
                        RIFF.2
justo al a%io de casados
                       RIFF.1
con la cara de angelito
                     RIFF.2
pero cola de pescado


              FIG.2

ESTROFAS
una ma%ana dos soldados tiburones
me condujeron a la corte de neptuno
se me acusaba que en un viernes de dolores
a la sirena me comí en el desayuno

como niguno me creyera 
me mandaron fusilar
cuando aparece mi sirena 
y suelta toda la verdad


CORO


ENTRA LA BANDA 
RIFF.1 Y RIFF.2 COMO EL CORO
Y LO QUE SIGUE IGUAL RIFF.1 Y RIFF.2 HASTA EL FINAL

CORO

BANDA

PERO COLA DE PESCADO

PERO COLA DE PESCADO

ESTA ES LA HISTORIA DEL SIRENITO 
QUE LES VENGO YO A CONTAR
ESTA ES LA HISTORIA DEL SIRENITO 
QUE LES VENGO YO  CONTAR
HABLA DE UN HOMBRE Y UNA SIRENA
Y SU AMOR DENTRO DEL MAR
HABLA DE UN HOMBRE Y UNA SIRENA 
Y SU AMOR DENTRO DEL MAR

RIGO ES AMOR ( YO TE DIGO)

RIGO ES AMORTE (TE DIGO) ===> x6

B5 B5 A5 A5 E E E E
RIGO ES AMOR

TERMINA LA BANDA 

*******************************************************
Bueno chavos esta es mi primera transcripción de tablatura 
espero le puedan entender ya ke me esforcé lo suficiente para 
ke sea entendible. Mi nombre es Rafael Antonio Jesus Vazquez
y estudio en el instituto Tecnologico de Villa hermosa (ITVH) 
5to semestre de Ingenieria Civil, y por el momento toco en 
grupo de rock acá en Villahermosa el cual se llama SinLiZencia, 
si gustan nuestra dirección es  
y se me kieren escribir por alguna aclaración mi correo es 

(leader@

            
            
Suggest correction
Creating personal tab
Creating personal tab
You can edit any tab online and save it as your Personal.

You can edit, replace or remove any tab part or add personal notes – all changes will be seen only by you.

Personal tabs can be accessed anytime from any device, even offline.
Learn more »
Give kudos to tab author, rate the tab!
1 2 3 4 5
comments
print report bad tab
guest
Wanna post a correction for this tab? Suggest correction