Oops, an error
Loading. Please wait.

Para Que No Me Olvides tab

28 views 1 this week
no commentswrite comment
1 2 3 4 5
3 more votes to show rating
add to favorites
×
Save as Personal and add changes to this tab that will be seen only by you. Learn more ›
×
You can save this tab as Personal to edit and correct it or add notes. All changes will be seen only by you. Learn more »
launch autoscroll
font size
0
reset
how to read this tab
guitar tuner
edit
Autoscroll
slow
fast
+/-
esc
set tempo
stop
este es el intro de la primera guitarra y 
despues chequen el acompañamiento de abajo,
los inter suenan bien si tocan la rola con 
dos guitarras, creo que sale casi igual que 
la original chequenla

1)--10---10---10---9---7---5---7---9-------
2)--12---12---12--10---9---7---9--10-------
3)-----------------------------------------
4)-----------------------------------------
5)-----------------------------------------
6)-----------------------------------------

1)--7---7---7---5---7---9------------------
2)--9---9---9---7---9--10------------------
3)-----------------------------------------
4)-----------------------------------------
5)-----------------------------------------
6)-----------------------------------------

1)-----------------------------------------
2)--7---7---7---5---3---2---3---5----------
3)--7---7---7---6---4---2---4---6----------
4)-----------------------------------------
5)-----------------------------------------
6)-----------------------------------------

1)-----------------------------------------
2)--5---7---9---10---12---9----------------
3)-----------------------------------------
4)-----------------------------------------
5)-----------------------------------------
6)-----------------------------------------

intro de guitarra de acompañamiento 
(hasta abajo encontraran los acordes)
 
  #2----#3----#4----#1   y se repite  
 
  (inter 1)
1)-----------------------------------------
2)-----------------------------------------
3)-----------------------------------------
4)--4--4-----------------------------------
5)--------4--4--0--0------2-3-4----3-2-0---
6)--------------------2--------------------

   (inter 2)
1)-----9--7--5-----9--7--5--7--5-----------
2)--7-----------7--------------------------
3)-----------------------------------------

    (solo)
1)-----2-4-5--4---5-4---5-4---5------------
2)---2----------2-----2-----2--------------
3)-----------------------------------------

1)-------5-7-9-7-5-------------------------
2)-5-7-9-----------9--0-2-3-5-3-2-0-----757
3)----------------------------------2--6---

1)--5-5-5-5-4-5=7-5--9-10-12--9-10-12-10--9
2)--7-7-7-7-6-7=9-7-10-12-14-10-12-14-12-10
3)-----------------------------------------

1)--------------7-5-------9--9--9-7-5--9---
2)--5-7-9-7-5-7-----9-7--10-10-10-9-7-10---
3)-----------------------------------------
  EL SOLO VA ACOMPAÑADO CON ESTA VUELTA
           (#1--#3--#4--#1)

empieza con(inter 1)
#1   
para que no me olvides       
#3
voy a dejar en ti
#4
todas mis iluciones
#1
mi principio y mi fin...

#1
para que no te vallas
#3
voy a dejar mi paz
#4
en todos los rincones
#1
de toda tu soledad...

#3    #4            #1
haaay ser eterno en tu memoria (intrer 2)
#3    #4          #1
haaay y vivir por siempre en ti...

   (..coro..)
          #2                  #3
sere el silencio de todas tus noches     
               #4              #1 
perderme en el fondo de tu corazon
            #2                  #3  
ser como un angel que cuide tus sueños
            #4
morirme con ellos... 

morir por tu amor.. (inter 1)

 """"""""""(solo)""""""""""
     
      (..coro..)
 FIN.

    (ACORDES DE LA CANCION)

    #1       #2       #3       #4
1)----2--------2--------0--------0----------
2)----2--------3--------2--------0----------
3)----2--------4--------2--------1----------
4)----4--------4--------2--------2----------
5)----4--------2--------0--------2----------
6)----2--------x--------x--------0----------

cualquier duda hechenme un grito 
Rasta_6933@

            
            
Suggest correction
Creating personal tab
Creating personal tab
You can edit any tab online and save it as your Personal.

You can edit, replace or remove any tab part or add personal notes – all changes will be seen only by you.

Personal tabs can be accessed anytime from any device, even offline.
Learn more »
Give kudos to tab author, rate the tab!
1 2 3 4 5
comments
print report bad tab
guest
Wanna post a correction for this tab? Suggest correction