Oops, an error
Loading. Please wait.

Popurri Del Sirenito tab

24 views 1 this week
no commentswrite comment
1 2 3 4 5
3 more votes to show rating
add to favorites
×
Save as Personal and add changes to this tab that will be seen only by you. Learn more ›
×
You can save this tab as Personal to edit and correct it or add notes. All changes will be seen only by you. Learn more »
launch autoscroll
font size
0
reset
how to read this tab
guitar tuner
edit
Autoscroll
slow
fast
+/-
esc
set tempo
stop
 INTRO x 4  W/dist       REMATE 4 VEZ
e ---------------0--||------------||
B ---------------0--||------------||
G ---------------1--||------------||
D ---------------2--||---2222222--||
A ---------------2--||---2222222--||
E -0h3p0h3p0--0-----||---0000000--||


  RIFF 1  w/wah
                                 Bm                              E
e ----------------------------------------|----------------------------------------|
B -12-12-12-12----------------------------|-14-14-14-14----------------------------|
G -------------13-13-13-13----------------|-------------14-14-14-14----------------|
D -------------------------14-14-14-14-13-|-------------------------16-16-16-16-14-|
A ----------------------------------------|----------------------------------------|
E ----------------------------------------|----------------------------------------|

                                 Bm                              E
e ----------------------------------------|----------------------------------------|
B -12-12-12-12----------------------------|-14-14-14-14----------------------------|
G -------------13-13-13-13----------------|-------------14-14-14-14----------------|
D -------------------------14-14-14-14-13-|-------------------------16-16-16-16-14-|
A ----------------------------------------|----------------------------------------|
E ----------------------------------------|----------------------------------------|


  RIFF 2
   E
e ------------------------------------------------------------------------------|
B ------------------------------------------------------------------------------|
G -11h13-13-11-------------11h13-13-11-------------11h13-13-11------------------|
D -------------14-13-11-13-------------14-13-11-13-------------14-13-11-13-14~~-|
A ------------------------------------------------------------------------------|
E ------------------------------------------------------------------------------|


                          B7
CUANDO BUCEABA POR EL FONDO DEL OCEANO

                        E
ME ENAMORE DE UNA BELLISIMA SIRENA

                          B7
FUERA DEL MAR SIN VACILAR PEDI SU MANO

                          E
Y NOS CASAMOS EN LAS PLAYAS DE CALETA

       A
PASARON MAS DE NUEVE MESES SIN NINGUNA NOVEDAD

      B7                                RIFF 3
PERO SERQUITA DE LOS TRECE SE ENFERMO DE GRAVEDAD


RIFF 3
    EE      B7B7B7 EE B7B7B7
e --------------------||
B --------------------||
G --------------------||
D --------------------||
A ------222-------222-||
E ---00--------00-----||


RIFF 4 DURANTE EL CORO
e ------------------|
B ------------------|
G ------------------|
D ------------------|
A --2-4-2---2-4-2---|
E ------------------|


CORO
            B7                  E
TUVIMOS UN SIRENITO JUSTO AL AÑO DE CASADOS

            B7                  E
CON LA CARA DE ANGELITO PERO COLA DE PESCADO

CORO

RIFF 2


                        B7
UNA MAÑANA DOS SOLDADOS TIBURONES

                        E
ME CONDUJERON A LA CORTE DE NEPTUNO

                              B7
SE ME ACUSABA QUE EN UN VIERNES DE DOLORES 

                        E
A LA SIRENA ME COMI EN EL DESAYUNO

      A
COMO NINGUNO ME CREYERA ME MANDARON FUSILAR

        B7                               RIFF 3
CUANDO APARECE MI SIRENA Y SUELTA TODA LA VERDAD


RIFF 5
                  B7                    E
e --------------------------------------------------|
B --------------------------------------------------|
G --------------------------------------------------|
D -9-9-9-------------------11-11-11-----------------|
A --------11-11----------------------12-12----------|
E ---------------12-12-11-------------------14-14-12|


RIFF 6
                  B7
e ------------------------|
B ------------------------|
G ------------------------|
D -9-9-9------------------|
A --------11-11-----------|
E ---------------12-12-11-|


CORO X 2
RIFF 5 X 2
CORO

RIFF 6
             E
PERO COLA DE PESCADO

RIFF 6
             E
PERO COLA DE PESCADO

                     B7                        E

ESTA ES LA HISTORIA DEL SIRENITO QUE LES VENGO YO A CONTAR

                     B7                        E
ESTA ES LA HISTORIA DEL SIRENITO QUE LES VENGO YO A CONTAR

                     B7                        E
HABLA DE UN HOMBRE Y UNA SIRENA Y SU AMOR DENTRO DEL MAR

                     B7                        E
HABLA DE UN HOMBRE Y UNA SIRENA Y SU AMOR DENTRO DEL MAR


FINAL * 4
        B7
RIGO ES AMOR  TE DIGO

        E
RIGO ES AMOR  TE DIGO  


RIFF 5 
HASTA TERMINAR

            
            
Suggest correction
Creating personal tab
Creating personal tab
You can edit any tab online and save it as your Personal.

You can edit, replace or remove any tab part or add personal notes – all changes will be seen only by you.

Personal tabs can be accessed anytime from any device, even offline.
Learn more »
Give kudos to tab author, rate the tab!
1 2 3 4 5
comments
print report bad tab
guest
Wanna post a correction for this tab? Suggest correction