Oops, an error
Loading. Please wait.

Antes Y Después tab

version 2
version 2

Whole song

Interactive

135 views 1 this week
no commentswrite comment
1 2 3 4 5
3 more votes to show rating
add to favorites
×
Save as Personal and add changes to this tab that will be seen only by you. Learn more ›
×
You can save this tab as Personal to edit and correct it or add notes. All changes will be seen only by you. Learn more »
launch autoscroll
font size
0
reset
how to read this tab
guitar tuner
edit
Autoscroll
slow
fast
+/-
esc
set tempo
stop
Intro: E


E
Antes, hace ya tiempo
          D   A            E
yo te invitaba a cazar un ciervo
E
Después te acompanaba
         Bm   D         E
a buscar yuyos  para tu cama.

C#m                D
Antes, en una emboscada
         A        B7                  E
Te protegia y perdia un ojo por una espada.
C#m                D
Despues vos me invitabas
         A              B7            G
A ver la luna, la misma luna en tu ventana?


Riff 1 X2

   E                                                   D     A      E
1---------------------------------------------------------------------
2--0-------0-1-0----------0-2-3-2-0-----------------------------------
3----2-1-2-------2-1--1-2-----------2-1-----2-2-1---------------------
4--------------------------------------------------4-2-0--2-----------
5------------------------------------------------------------4--------
6----------------------------------------------------------------2--0-


Antes, hace ya tiempo
Conquistadores nos imponian su dios del miedo.
Despues vos me abrazabas
Y me lamias en cada herida y cada yaga.


Antes, cadenas llevaba                       G
Y en un mercado sobre los muelles vos me comprabas?


A                     Em
Que placer verte otra vez
                  D
Nos decimos sin hablar
                      F#m                   E5 F#5 G#5 A5 B5 C#5 E
Hoy todo vuelve a empezar y sera lo que ya fue.
E                     Em
Que placer verte otra vez
                  D
No decimos sin hablar
                      F#m                   E5 D5 C#5 B5 A5 G#5  E
Hoy todo vuelve a empezar y sera lo que ya fue.


Riff 1 X2


Despues me regalabas
Ese retrato que bajo tierra aun me acompana?


Que placer verte otra vez
Nos decimos sin hablar
Hoy todo vuelve a empezar y sera lo que ya fue.

Que placer verte otra vez
No decimos sin hablar
Hoy todo vuelve a empezar y sera lo que ya fue.


G         F        E
Nuestro amor renacera
G     F          E
Con identica pasion,
D      A            E
Almas sin transmutación
G       F             E
Nuevos cuerpos que seran..

Riff 2
  E
1--------------------------------------------------------
2-12-10-9--10-12-13-12-10-9--9-10-12-14-15-14-12-10-9----
3--------------------------------------------------------
4--------------------------------------------------------
5--------------------------------------------------------
6--------------------------------------------------------
                 D             A         E
1----------------------------------------------
2---10-10-9------------------------------------
3-----------11-9-7------9----------------------
4------------------------------11--------------
5--------------------------------------9-7-----
6----------------------------------------------

Riff 2  X2

modifique una parte del primer riff y le agregue el riff 2
que hace al final ojala les salga

            
            
Suggest correction
Creating personal tab
Creating personal tab
You can edit any tab online and save it as your Personal.

You can edit, replace or remove any tab part or add personal notes – all changes will be seen only by you.

Personal tabs can be accessed anytime from any device, even offline.
Learn more »
Give kudos to tab author, rate the tab!
1 2 3 4 5
comments
print report bad tab
guest
Wanna post a correction for this tab? Suggest correction