Oops, an error
Loading. Please wait.

Antes Y Después tab

version 3
version 3

Whole song

Interactive

101 views 1 this week
no commentswrite comment
1 2 3 4 5
3 more votes to show rating
add to favorites
×
Save as Personal and add changes to this tab that will be seen only by you. Learn more ›
×
You can save this tab as Personal to edit and correct it or add notes. All changes will be seen only by you. Learn more »
launch autoscroll
font size
0
reset
how to read this tab
guitar tuner
edit
Autoscroll
slow
fast
+/-
esc
set tempo
stop
 Hola, aca dejo el intro y algunos arreglitos del tema suena de 10 solo
 hay que escuchar bien los vibratos y los bend de los arreglos.
 Faltan algunos despues los subo, y los acordes no los deje x que ya
 estaban bien.

__________________________________01:08_________________________________

Guitarra 2
E|----------------------------------------------------------------------|
B|----------------------------------------------------------------------|
G|-4--------4/5/4----------4-6/7v/6v-4----------------------------------|
D|----7-6-7-------7-6v-7-6-------------7-6v-6h7-7--6-4------------------|
A|-----------------------------------------------------7-5--5h7-4v------|
E|-----------------------------------------------------------------2v-0-|
  01:17
 |---------------------|
 |---------------------|
 |-9--9-9--9-9--9---9-9|
 |-9--9-9--9-9--9---9-9|
 |-7--7-7--7-7--7---7-7|
 |---------------------|

 Guitarra 1
 |-----------------------------------------------------------------------|
 |-----------------------------------------------------------------------|
 |-----------------------------------------------------------------------|
 |------------------*Hace lo mismo que la G2*----------------------------|
 |-----------------------------------------------------------------------|
 |-----------------------------------------------------------------------|
 01:17
 |----------15(b2)15v-|
 |-15b-15vv-----------|
 |--------------------|
 |--------------------|
 |--------------------|
 |--------------------|

 _______________________________________________________________________

 Guitarra 2
 |----------------------------------------------------------------------|
 |----------------------------------------------------------------------|
 |-4--------4/5/4----------4-6/7v-6v-4----------------------------------|
 |----7-6-7-------7-6v-7-6-------------7-6v-6h7-7--6-4------------------|
 |-----------------------------------------------------7-5--5h7-4v------|
 |-----------------------------------------------------------------2v-0-|
 01:30
 |---------------------|
 |---------------------|
 |-9--9-9--9-9--9---9-9|
 |-9--9-9--9-9--9---9-9|
 |-7--7-7--7-7--7---7-7|
 |---------------------|

 Guitarra 1
 |-----------------------------------------------------------------------|
 |-----------------------------------------------------------------------|
 |-----------------------------------------------------------------------|
 |------------------*Hace lo mismo que la G2*----------------------------|
 |-----------------------------------------------------------------------|
 |-----------------------------------------------------------------------|
  01:26                                  01:30
|---------------------12-------12--15b-|-15--15-15--x-15--15-15--15-15-15-|
|------------------------12-15b--12----|----------------------------------|
|--14b-14p12h14vv--14b-----------------|-12--12-12--x-12--12-12--12-12-12-|
|--------------------------------------|----------------------------------|
|--------------------------------------|----------------------------------|
|--------------------------------------|----------------------------------|

 __________________________________________________________________________


 Guitarra 2

 04:26
 |----------------------------------------------------------------------|
 |----------------------------------------------------------------------|
 |-4--------4/5/4----------4-6/7v/6v-4----------------------------------|
 |----7-6-7-------7-6v-7-6-------------7-6v-6h7-7--6-4------------------|
 |-----------------------------------------------------7-5--5h7-4v------|
 |-----------------------------------------------------------------2v-0-|
 04:36
 |---------------------|
 |---------------------|
 |-9--9-9--9-9--9---9-9|
 |-9--9-9--9-9--9---9-9|
 |-7--7-7--7-7--7---7-7|
 |---------------------|

 Guitarra 1
 04:26
 |-7--------7/8-7h8p7----------7-9-9/10-9v-7------------------------------|
 |---10-9-10---------10-9v-9-10-------------10-9v-9h10-10--9-7------------|
 |------------------------------------------------------------9-7v-9-8v---|
 |------------------------------------------------------------------------|
 |---------------------------------------------------------------------9v-|
 |------------------------------------------------------------------------|

 04:35
 |-----12---12-15b12------12----------|
 |---12----12-------12--12------------|
 |-14b---14b----------14b----14ba12---|
 |---------------------------------14-|
 |------------------------------------|
 |------------------------------------|

________________________________________________________________________

Guitarra 2

|----------------------------------------------------------------------|
|----------------------------------------------------------------------|
|-4--------4/5/4----------4-6-6/7v-6v-4--------------------------------|
|----7-6-7-------7-6v-7-6---------------7-6v-6h7-7--6-4----------------|
|-------------------------------------------------------7-5--5h7-4v----|
|-------------------------------------------------------------------2v-|


Guitarra 1

|-7--------7/8-7h8p7----------7-9-9/10-9v-7------------------------------|
|---10-9-10---------10-9v-9-10-------------10-9v-9h10-10--9-7------------|
|------------------------------------------------------------9-7v-9-8v---|
|------------------------------------------------------------------------|
|---------------------------------------------------------------------9v-|
|------------------------------------------------------------------------|

 Terminan las dos guitarras en MI

 15(b2): significa que hay que estirar en el traste 15 hasta pasar el la
 del traste 17, escuchar bien.
 b: estirar
 v: vivrato

 Denisse te amo!

            
            
Suggest correction
Creating personal tab
Creating personal tab
You can edit any tab online and save it as your Personal.

You can edit, replace or remove any tab part or add personal notes – all changes will be seen only by you.

Personal tabs can be accessed anytime from any device, even offline.
Learn more »
Give kudos to tab author, rate the tab!
1 2 3 4 5
comments
print report bad tab
guest
Wanna post a correction for this tab? Suggest correction