Oops, an error
Loading. Please wait.

Antes Y Después tab

version 4
version 4

Whole song

Interactive

102 views 1 this week
no commentswrite comment
1 2 3 4 5
2 more votes to show rating
add to favorites
×
Save as Personal and add changes to this tab that will be seen only by you. Learn more ›
×
You can save this tab as Personal to edit and correct it or add notes. All changes will be seen only by you. Learn more »
launch autoscroll
font size
0
reset
how to read this tab
guitar tuner
edit
Autoscroll
slow
fast
+/-
esc
set tempo
stop
Intro: E
Esta parte se toca saltando cuerdas, primero la 5º y luego la 3º
las "x" indican la cuerda se toca pero tapándola
(escuchen los tiempos)
1|-----------|------------
2|-----------|------------
3|--13/11/9--|---13/11/9--
4|----/x-/x--|-----/x-/x--
5|--11/-9/7--|---11/-9/7--
6|-----------|------------

En este verso es lo mismo solo que cambia el orden de las notas:
los puntos solo identifican las notas mas largas
1|-----------------------
2|-----------------------
3|--13./11/9/13./11/7/9--
4|-----/x-/x/---/x-/x/x--
5|--11./-9/7/11./-9/5/7--
6|-----------------------

E
Antes, hace ya tiempo
          D   A            E
yo te invitaba a cazar un ciervo
E
Después te acompañaba
         Bm   D         E
a buscar yuyos  para tu cama.

En este verso lo mismo solo que cambia el orden de las notas:
la doble barra es solo para acomodar los números
1|-------------------------------
2|-------------------------------
3|--6/7/6/4/9--13/11/9./11./9/8--
4|--x/x/x/x/x----------/x--/x/x--
5|--4/5/4/2/7--11//9/7.//9./7/6--
6|-------------------------------

C#m                D
Antes, en una emboscada
         A        B7                  E
Te protegía y perdía un ojo por una espada.
C#m                D
Después vos me invitabas
         A              B7            G5(PM)y limpiando el sonido suavemente
A ver la luna, la misma luna en tu ventana?

Riff 1
  E                                                     D     A        E
1|------------------------------------------------------------------------
2|------------------------------------------------------------------------
3|-/4-2-1--2-4/5-4/2-1--1h2-4/6-6/7-6-4/2-1--2-1h2-1----------------------
4|----------------------------------------------------4-2-0--/2-----------
5|-------------------------------------------------------------/4---------
6|----------------------------------------------------------------2b3--0--

Riff 2
1|--------15b-15b--15v---
2|---15b-----------------
3|-----------------------
4|-----------------------
5|-----------------------
6|-----------------------
Riff 1

Riff 3
1|--------------------12--------12-----15b-----15--15-15--15--15-15-15----
2|-----------------------12-15b----12-------------------------------------
3|--14b-14p12-14--14b--------------------------12--12-12--12--12-12-12----
4|------------------------------------------------------------------------
5|------------------------------------------------------------------------
6|------------------------------------------------------------------------
(PM)
Antes, hace ya tiempo
Conquistadores nos imponían su dios del miedo.
Después vos me abrazabas
Y me lamias en cada herida y cada yaga.

Secuencia de notas: expicado al final
C#m    Bm   C#m   D
Antes, cadenas llevaba
E   D       C#m D        Bm                   /G
Y en un mercado sobre los muelles vos me comprabas?

A                     Em
Que placer verte otra vez
                  D Dsus D
Nos decimos sin hablar
                      F#m                   E5 F#5 G#5 A5 B5
Hoy todo vuelve a empezar y sera lo que ya fue.


E                     Em
Que placer verte otra vez
                  D Dsus D
No decimos sin hablar
                      F#m                   E5 D5 C# B A
Hoy todo vuelve a empezar y sera lo que ya fue.


Riff 1 - Riff 2 - Riff 1 - Riff3

Secuencia de notas:
C#m    Bm   C#m   D
Después me regalabas
E   D       C#m D        Bm                   /G
Ese retrato que bajo tierra aun me acompaña?


Que placer verte otra vez
Nos decimos sin hablar
Hoy todo vuelve a empezar y sera lo que ya fue.

Que placer verte otra vez
No decimos sin hablar
Hoy todo vuelve a empezar y sera lo que ya fue.

G         F        E
Nuestro amor renacerá
                                                 G
1|-----------------------------------------------3---
2|-------------------------6-6p5-3---------------3---
3|-----------------1/2-4-5---------5-5p4-2--2/5--4---
4|-----------------------------------------------5---
5|-----------------------------------------------5---
6|-----------------------------------------------3---


G     F          E
Con idéntica pasión,
                                            D
1|------------------5-7-8-7-7p5--4----------2-----
2|---------------------------------6-6/5-3--3-----
3|------------------------------------------2-----
4|------------------------------------------0-----
5|------------------------------------------0-----
6|------------------------------------------0-----

D      A            E
Almas sin transmutación
e|----------------------------------------
B|-----------------------4b5p4h5p4h5p4----
G|----------------------------------------
D|----------------------------------------
A|----------------------------------------
E|----------------------------------------

G       F             E
Nuevos cuerpos que seran..
E (con wah wah)

Riff 4
  E
1|-7--------7h8-7-----------7h9-9h10-9--7------------------------------------
2|--10-9--10-----10-9--9h10--------------10-9--10-9h10-9-7-------------------
3|--------------------------------------------------------9-7-7/9------------
4|---------------------------------------------------------------9/11--------
5|--------------------------------------------------------------------8/9-7--
6|---------------------------------------------------------------------------

1|-----12---12-15b12------12----------
2|---12----12-------12--12------------
3|-14b---14b----------14b----14b12---
4|---------------------------------14-
5|------------------------------------
6|------------------------------------

Riff 4
y terminan las guitarras en E

Aclaración de (secuencias de notas)
1|------------------------------
2|------------------------------
3|--6--4--6--7--9--7--6--7--4---
4|--x--x--x--x--x--x--x--x--x---
5|--4--2--4--5--7--5--4--5--2---
6|------------------------------
Suggest correction
Creating personal tab
Creating personal tab
You can edit any tab online and save it as your Personal.

You can edit, replace or remove any tab part or add personal notes – all changes will be seen only by you.

Personal tabs can be accessed anytime from any device, even offline.
Learn more »
Give kudos to tab author, rate the tab!
1 2 3 4 5
comments
print report bad tab
guest
Wanna post a correction for this tab? Suggest correction