Oops, an error
Loading. Please wait.

El Trén tab

5 views 1 this week
no commentswrite comment
1 2 3 4 5
3 more votes to show rating
add to favorites
×
Save as Personal and add changes to this tab that will be seen only by you. Learn more ›
×
You can save this tab as Personal to edit and correct it or add notes. All changes will be seen only by you. Learn more »
launch autoscroll
font size
0
reset
how to read this tab
guitar tuner
edit
Autoscroll
slow
fast
+/-
esc
set tempo
stop
HOLA A TODOS!! QUE TAL!! ESTA ES OTRA DE MIS COLABORACIONES
Y ESPERO QUE LES SEA DE AYUDA.. AUNQUE SEA UN POKITO..!!

ESTA ES UNA ROLA DE CIUDAD LIPTON..
ES COMO LA DEL TREN DEL ALBUM MORIR A MI,
PERO MODIFICADA, ESTA MUY SUAVE, ESKUCHENLA..

%%%%%%%%%%%%%%%%%%%%%%%%%%%%%%%%%%%%%%%%%%%%%%%%%%%%%%


                       D2
estoy sentado en este tren

e|---12-12-12----10-10-10----9--9--9----10---9-----|
B|---14-14-14----12-12-12----10-10-10---12---10----|
G|-------------------------------------------------|
D|-------------------------------------------------|
A|-------------------------------------------------|
E|-------------------------------------------------|

A2                      D2               E
miro por la ventana los sueños que no pudieron ser
A2                D2
traigo mi maleta aqui
A2              D2                 E
en ella cargo todo lo que esta dentro de mi

e|---------------9--10--12--10--9----|
B|-----9--10--12------------------10-|
G|--11-------------------------------|
D|-----------------------------------|
A|-----------------------------------|
E|-----------------------------------|

D2                       E
yo voy rumbo a la estacion
D2                    E
a encontrar a mi destino
D2                E
ya tome una deCiSion
       D2
de no parar
         E
de no parar
          A2
hasta el final

e|---12-12-12----10-10-10----9--9--9----10---9--------10---9--|
B|---14-14-14----12-12-12----10-10-10---12---10-------12---10-|
G|------------------------------------------------------------|

A2                    D2
atras deje solo un cajon
A2                      D2
lleno de palabras que dijeron
        E
nunka llegaras
A2                      D2
yo voy sentado en este tren
A2
y miro adelante
 D2               E
y se que pronto llegare


e|---------------9--10--12--10--9----|
B|-----9--10--12------------------10-|
G|--11-------------------------------|
D|-----------------------------------|
A|-----------------------------------|
E|-----------------------------------|


Coro:

D2                       E
 Yo voy rumbo a la estación,
D2                    E
 A encontrar a mí destino,
D2                E         D2
 Ya tome una decisión de no parar,
          E            A2
 De no parar hasta el final.


e|-------------------------------------------------------------
B|-----------------------12-10-9-10/12-------------------------
G|-7-9-9~11-11~13-13~14-----------------------10/12-10~9-9/10--
D|--------------------------------------10-12------------------
A|-------------------------------------------------------------
E|-------------------------------------------------------------

e|--------------------------------------10-9--------
B|--10-10-10-10~9-10-12-----------10-12-------10----
G|----------------------9---10-12---------------11--
D|--------------------------------------------------
A|--------------------------------------------------
E|--------------------------------------------------

e|-----------9-10-12/10---12/10---12/10---12/10---12-
B|---9-10-12-----------10------10------10------10---
G|-11---------------------------------------------
D|-----------------------------------------------
A|-----------------------------------------------
E|-----------------------------------------------

e|-*12-10-9-------------------|
B|----------12-10-9-----------|
G|------------------10-9*-----|
D|----------------------------|
A|----------------------------|
E|----------------------------|

       D2
no parare
          A2
hasta el final
       D2
yo llegare
                   A2
a donde tenga que llegar
          Bm
y si al final
           D2
no logro llegar

que no sea porque
E           A2
yo no lo intente

e|-0/2---------|
B|-0/2--0/2----|
G|------2-2----|
D|-------------|
A|-------------|
E|-------------|

CORO:

yo voy rumbo a la estacion

a encontrar a mi destino

ya tome una desicion

de no parar

de no parar

hasta el final
e|-*12-10-9-------------------|
B|----------12-10-9-----------|
G|------------------10-9*-----|
D|----------------------------|
A|----------------------------|
E|----------------------------|

  D2 A2
E 0   0
B 3   0
G 2   2
D 0   2
A 0   0
E 0   0

***********************************************************
PARA MAS INFORMACION, QUEJAS O AMENASAS
LES DEJO MI CORRERO

albr_73@

gracias y Dios les bendiga..

            
            
Suggest correction
Creating personal tab
Creating personal tab
You can edit any tab online and save it as your Personal.

You can edit, replace or remove any tab part or add personal notes – all changes will be seen only by you.

Personal tabs can be accessed anytime from any device, even offline.
Learn more »
Give kudos to tab author, rate the tab!
1 2 3 4 5
comments
print report bad tab
guest
Wanna post a correction for this tab? Suggest correction