Oops, an error
Loading. Please wait.

Pensar En Tí tab

version 2
version 2

Whole song

11 views 1 this week
no commentswrite comment
1 2 3 4 5
3 more votes to show rating
add to favorites
×
Save as Personal and add changes to this tab that will be seen only by you. Learn more ›
×
You can save this tab as Personal to edit and correct it or add notes. All changes will be seen only by you. Learn more »
launch autoscroll
font size
0
reset
how to read this tab
guitar tuner
edit
Autoscroll
slow
fast
+/-
esc
set tempo
stop
Es envase a la canción en acústico de la segunda guitarra


ai  stan en  telehit

Intro:

  Csus2            G             Am           F
e|------------|-----------|-----------|----------3-|
B|----------3-|---------3-|---------3-|-------1----|
G|-------0----|------0----|------0----|----2-------|
D|----2-------|---0-------|----2------|-3----------|
A|-3----------|-2---------|-0---------|------------|
E|------------|-----------|-----------|------------|

  F*                              G*
e|-3------------------|-5--------------------
B|-6-----6-----6------|-8------8---8---------
G|-5--------5----5----|-7--------7---7-------
D|-3------------------|-5--------------------
A|-3------------------|-5--------------------
E|-3------------------|-5--------------------

 ESTE ES EL INTRO, EN ACUSTICO, ES UN RASGUEO, EN EL K DIERON EN TELEHIT

e|-8-----  |-7-----  |-8-----|
B|10-----  |10-----  |10-----|
G|-9-----X5|-9-----X3|-9-----|X3
D|-0-----  |-0-----  |-0-----|
A|-0-----  |-0-----  |-0-----|
E|-0-----  |-0-----  |-0-----|

e|-7-----  |-8-----  |-8-----|
B|10-----  |10-----  |10-----|
G|-9-----X1|-9-----X5|-9-----|X8
D|-0-----  |-0-----  |-8-----|
A|-0-----  |-0-----  |-8-----|
E|-0-----  |-0-----  |-8-----!


 Verso:

Csus2            G             Am          F
e|------------|-----------|-----------|----------3-| X2
B|----------3-|---------3-|---------3-|-------1----|
G|-------0----|------0----|------0----|----2-------|
D|----2-------|---0-------|----2------|-3----------|
A|-3----------|-2---------|-0---------|------------|
E|------------|-----------|-----------|------------|


Pre-coro:

F*                              G*
e|-3------------------|-5---------------------
B|-6-----6-----6------|-8-------8---8---------
G|-5--------5----5----|-7---------7---7-------
D|-3------------------|-5---------------------
A|-3------------------|-5---------------------
E|-3------------------|-5---------------------

Coro:

e|-8-----  |-7-----  |-8----|
B|10-----  |10-----  |10----|
G|-9-----X5|-9-----X3|-9----|X3
D|-0-----  |-------  |-0----|
A|-0-----  |-0-----  |-0----|
E|-0-----  |-0-----  |-0----|
                                                       X2
E|-7-----  |-8-----  |-8-----|
B|10-----  |10-----  |10-----|
G|-9-----X1|-9-----X5|-9-----|X8
D|-0-----  |-0-----  |-8-----|
A|-0-----  |-0-----  |-8-----|
E|-0-----  |-0-----  |-8------!

  Csus2            G             Am            F
e|------------|-----------|-----------|----------3-| X2
B|----------3-|---------3-|---------3-|-------1----|
G|-------0----|------0----|------0----|----2-------|
D|----2-------|---0-------|----2------|-3----------|
A|-3----------|-2---------|-0---------|------------|
E|------------|-----------|-----------|------------|


DE PENSAR EN TI   UOOO DE     PENSAR EN TI

Verso 2:
Csus2            G             Am            F
e|------------|-----------|-----------|----------3-| X2
B|----------3-|---------3-|---------3-|-------1----|
G|-------0----|------0----|------0----|----2-------|
D|----2-------|---0-------|----2------|-3----------|
A|-3----------|-2---------|-0---------|------------|
E|------------|-----------|-----------|------------|

Pre-Coro:
  F*                              G*
e|-3------------------|-5--------------------
B|-6-----6-----6------|-8------8---8---------
G|-5--------5----5----|-7--------7---7-------
D|-3------------------|-5--------------------
A|-3------------------|-5--------------------
E|-3------------------|-5--------------------

Coro:
e|-8-----  |-7-----  |-8----|
B|10-----  |10-----  |10----|
G|-9-----X5|-9-----X3|-9----|X3
D|-0-----  |-------  |-0----|
A|-0-----  |-0-----  |-0----|
E|-0-----  |-0-----  |-0----|
                                                       X2
E|-7-----  |-8-----  |-8-----|
B|10-----  |10-----  |10-----|
G|-9-----X1|-9-----X5|-9-----|X8
D|-0-----  |-0-----  |-8-----|
A|-0-----  |-0-----  |-8-----|
E|-0-----  |-0-----  |-8------!


VERSO3:
COMO BORRAR ESTA HISTORIA DE AMOR????

    G*          F*
e-5------   3--------
B|8-----    6--------
G|7-----    5--------   X4
D|5-----    3--------
A|5-----    3--------
E|5-----    3--------


ESTO E COMO UN  RASGEO

D|--2223332--0001110  x2


Csus2     G          Am     F
UUOOOUUOO   UUOOOUUOOO   UUUOOOOUUOOO    X3


  Csus2      G         Am         Fmaj7
NO E DEJADO DE PENSAR DE PENSAR DE PENSAR EN TI???????


       e B G D A E
Csus2: 0 3 0 2 3 0
Am   : o 1 0 3 0 0
Fsus2: 0 1 2 3 3 0

Espero k les haya gustado les dejo mi correo Si  ay dudas
mythology_eliel_lopez@

Saludos  A LA iglesia Adonaí de Tapachula  =)

            
            
Suggest correction
Creating personal tab
Creating personal tab
You can edit any tab online and save it as your Personal.

You can edit, replace or remove any tab part or add personal notes – all changes will be seen only by you.

Personal tabs can be accessed anytime from any device, even offline.
Learn more »
Give kudos to tab author, rate the tab!
1 2 3 4 5
comments
print report bad tab
guest
Wanna post a correction for this tab? Suggest correction