Oops, an error
Loading. Please wait.

Sé Que Puedes Lograrlo tab

13 views 1 this week
no commentswrite comment
1 2 3 4 5
3 more votes to show rating
add to favorites
×
Save as Personal and add changes to this tab that will be seen only by you. Learn more ›
×
You can save this tab as Personal to edit and correct it or add notes. All changes will be seen only by you. Learn more »
launch autoscroll
font size
0
reset
how to read this tab
guitar tuner
edit
Autoscroll
slow
fast
+/-
esc
set tempo
stop
Espero que el temita sea de su agrado!
Tengo algunas dudas con el solo, pero se oye bien.

"Toda la cancion esta en quintas"

INTRO

A C A F  x4


A           C     F      E           A
 No aguanto mas   el dolor dentro de mi
         C     F       E         A
Mi corazon    ya no deja de  sufrir
           C       F     E
No se que tienes, hoy en tu rutina
A      C       F       E
Que sera mejor que mi compañia

A C F E    x4

F G

A    C       G          A
Dejame soñar   almenos otro rato
A      C            F
Solo acepta mi amor loco
       G                        G
Se que puedes lograrlo, se que puedes lograrlo

A C A F  x2

A           C    F      E        A
 No aguantare    otro dia de mentiras
      C           F       E
Si tu me quiseras hoy aqui estarias
A          C       F       E        A
Sera que tus ojos no leen mi corazon
          C     F       E       A  C  F  E
Sera que aveces yo escondo el dolor
A  C  F  E      A  C  F  E      A  C  F  E
El dolor, el doolooor

F G

A       C     G          A
Dejame soñar   almenos   otro rato
A      C            F
Solo acepta mi amor loco
       G                    G
Se que puedes lograrlo, se que puedes lograrlo

A C F E     x4

Solo

e|--------------------------------------------------|
B|--12h13-12-10-12-10------------ 2 veces ----------|
G|--------------------------------------------------|
D|--------------------------------------------------|
A|--------------------------------------------------|
E|--------------------------------------------------|

e|--------------------------------------------------|
B|--12h13-12-10--12b12-10-12-10---------------------|
G|--------------------------------------------------|
D|--------------------------------------------------|
A|--------------------------------------------------|
E|--------------------------------------------------|

e|----------------12-12-12--11-10-------------------|
B|--12h13-12-10-------------------12~~~-------------|
G|--------------------------------------------------|
D|--------------------------------------------------|
A|--------------------------------------------------|
E|--------------------------------------------------|

                  F   G   A
Se que pueeeedes looograrloo!!


Pues ahi esta la rolitaaa! Escuchen mucho la cancion
para que agarren el ritmo!

Dedicada a la banda "Amiguiiin" de las Casas de Comision!!!

Gracias por la correccion maxi!
Suggest correction
Creating personal tab
Creating personal tab
You can edit any tab online and save it as your Personal.

You can edit, replace or remove any tab part or add personal notes – all changes will be seen only by you.

Personal tabs can be accessed anytime from any device, even offline.
Learn more »
Give kudos to tab author, rate the tab!
1 2 3 4 5
comments
print report bad tab
guest
Wanna post a correction for this tab? Suggest correction