Oops, an error
Loading. Please wait.

Los Años De Plomo tab

13 views 1 this week
no commentswrite comment
1 2 3 4 5
3 more votes to show rating
add to favorites
×
Save as Personal and add changes to this tab that will be seen only by you. Learn more ›
×
You can save this tab as Personal to edit and correct it or add notes. All changes will be seen only by you. Learn more »
launch autoscroll
font size
0
reset
how to read this tab
guitar tuner
edit
Autoscroll
slow
fast
+/-
esc
set tempo
stop
Aca Para compeltar la tab que esta en acordes, aca esta la intro..
La dividi en 4 partes
En el medio del tema tambien hace algo como la intro que es P1 y P4

P1
e---------------------------------
B--------12-13-12-----------------
G------14---------14--------------
D----14----------------14-17------
A-12-------------------------15---
E---------------------------------

P2
e---------------------12-13-12-----
B-------12-13-15-13-12---------13--
G-----14---------------------------
D---14-----------------------------
A-12-------------------------------
E----------------------------------

P3
e------------------------------
B-------12-13-12---------------
G-----14--------14-------------
D---14------------14-17-19-----
A-12---------------------------
E------------------------------

P4
e---------------------12-15-20-
B-------12-13-15-13-12---------
G-----14-----------------------
D---14-------------------------
A-12---------------------------
E------------------------------

Ya con lo que esta y con esta tab completariamos la cancion...
para el solo lo hace convinando un poco la escala de C mayor con G mayor
Saludos!

si son 2 guitarras la otra puede ir haciendo esto

P1
e-------------------
B-------------------
G----4-5-4----------
D---7-----7---------
A--7-------7-10-----
E-5------------8----

P2
e---------------------
B--------------5-6-5--
G----4-5-7-5-4------5-
D---7-----------------
A--7------------------
E-5-------------------

P3
e-------------------
B-------------------
G----4-5-4----------
D---7------7--------
A--7--------7-10-12-
E-5-----------------

P4
e---------------------
B--------------5-7-13-
G----4-5-7-5-4--------
D---7-----------------
A--7------------------
E-5-------------------

le da mucha fuerza al riff.

            
            
Suggest correction
Creating personal tab
Creating personal tab
You can edit any tab online and save it as your Personal.

You can edit, replace or remove any tab part or add personal notes – all changes will be seen only by you.

Personal tabs can be accessed anytime from any device, even offline.
Learn more »
Give kudos to tab author, rate the tab!
1 2 3 4 5
comments
print report bad tab
guest
Wanna post a correction for this tab? Suggest correction