Oops, an error
Loading. Please wait.

Un Caso En Un Míllón tab

4 views 1 this week
no commentswrite comment
1 2 3 4 5
3 more votes to show rating
add to favorites
×
Save as Personal and add changes to this tab that will be seen only by you. Learn more ›
×
You can save this tab as Personal to edit and correct it or add notes. All changes will be seen only by you. Learn more »
launch autoscroll
font size
0
reset
how to read this tab
guitar tuner
edit
Autoscroll
slow
fast
+/-
esc
set tempo
stop
Intro
1|------------------|--------------------|
2|------------------|--------------------|
3|------------------|--------------------|
4|-9-9-12----9------|---------------12-9-|
5|-7-7-10-12-7-9-12-|-9-9-12-7-9-12-10-7-|
6|--------10---7-10-|-7-7-10-5-7-10------|

Riff 1                 Riff 2
1|--------------------|--------------------|
2|--------------------|--------------------|
3|--------------------|--------------------|
4|-9-9-12----9------9-|---------------12-9-|
5|-7-7-10-12-7-9-12-7-|-9-9-12-7-9-12-10-7-|
6|--------10---7-10---|-7-7-10-5-7-10------|


Riff 3     LA5          DO5          RE5 LA5      DO5
1|------------|------------|------------|--------------|
2|------------|------------|------------|--------------|
3|------------|------------|------------|--------------|
4|----------3-|----------5-|----------7-|--------------|
5|-22-------1-|-22-------3-|-22-------5-|-7-------10---|
6|-00-3-2-0---|-00-3-2-0---|-00-3-2-0---|-5-------8----|


MI5                         Riff 1
Estoy machacando mi cabeza
MI5     SOL5                Riff 2
Resisto tu amargo sabor
MI5                         Riff 1
Día a día me alejo
MI5      SOL5               Riff 2
De ese ardor existencial

Sobre Riff 3
Para crecer, para andar..
Por los caminos que me da la libertad


Repite Primera Estrofa

Intento llevar la esperanza
Quien cree puede estar mejor
MI eterno permanente
Me dio a entender que soy humano

Sobre Riff 3
No te enrosques en las esquinas
Quemando virulana hasta no dar más
Vos elegís no todo es fácil
Ni el cielo ni el infierno mirando reír

Solo

Repite Primera Estrofa

Armas a la alcance de inconcientes
Le dan poder a la ignorancia
Y ahí esta la sangre inocente
Derramada en un ciber de Moreno

Sobre Riff 3
Que aberración, que cobardía
El balazo en la nuca fue para la nación
El era Franco, pibe de familia
Un hijo tuyo mió y de esta sociedad.


Aguante El Tano.
Suggest correction
Creating personal tab
Creating personal tab
You can edit any tab online and save it as your Personal.

You can edit, replace or remove any tab part or add personal notes – all changes will be seen only by you.

Personal tabs can be accessed anytime from any device, even offline.
Learn more »
Give kudos to tab author, rate the tab!
1 2 3 4 5
comments
print report bad tab
guest
Wanna post a correction for this tab? Suggest correction