Oops, an error
Loading. Please wait.

Dos Días tab

25 views 1 this week
no commentswrite comment
1 2 3 4 5
3 more votes to show rating
add to favorites
×
Save as Personal and add changes to this tab that will be seen only by you. Learn more ›
×
You can save this tab as Personal to edit and correct it or add notes. All changes will be seen only by you. Learn more »
launch autoscroll
font size
0
reset
how to read this tab
guitar tuner
edit
Autoscroll
slow
fast
+/-
esc
set tempo
stop
Mas abajo puse los acordes que pienso que son los correctos.
En la versión anterior algunos menores en realidad son
mayores y otros no correspondían.

Apenas empieza el tema se escucha un rasgeo con ritmo
de cumbia sobre A (xx7655)


E||--9----9-7---------------|---7-----------------|
B||------------10-9--7--9---|-----10--9-7-----7---|
G||-------------------------|--------------9------|
D||-------------------------|---------------------|
A||-------------------------|---------------------|
E||-------------------------|---------------------|

-------------------------|------------------------|
------7--9--10-10-----9--|------------------------|
-------------------------|--6/7--7-6--4-------6---|
-------------------------|--------------7--6------|
-------------------------|------------------------|
-------------------------|------------------------|

-------------------|-----------------------|--------------------|
-------------------|-----------------------|--------------------|
--6-4----------4---|-----------------------|------7-----6-------|
-------7-6--4------|------4--6--7-7-----6--|--------------------|
-------------------|-----------------------|--------------------|
-------------------|-----------------------|--------------------|

--9----9-7---------------|------7-----------------|
------------10-9--7--9---|--------10--9-7-----7---|
-------------------------|-----------------9------|
-------------------------|------------------------|
-------------------------|------------------------|
-------------------------|------------------------|

-------------------------|------------------------|
------7--9--10-10-----9--|------------------------|
-------------------------|--6/7--7-6--4------6-9--|
-------------------------|--------------7--6------|
-------------------------|------------------------|
-------------------------|------------------------|

-------------------|-----------------------|--------------------||
-------------------|-----------------------|--------------------||
--6-4---------4-7--|-----------------------|------7-----6-------||
-------7-6--4------|------4--6--7-7-----6--|--------------------||
-------------------|-----------------------|--------------------||
-------------------|-----------------------|--------------------||

A                E
Dos días sin dormir,
                    F#m
después que dijiste sí,
         E    E7
aquella noche.

D                   A
Me estoy volviendo loco,
                 Bm
poco, poquito a poco
         E       E7      A
y ya no puedo estar sin ti.

                    E
No puedo estar sin ti.
                F#m
Si desde que te vi
                    E   E7
ya no quiero estar solo.

D                    A
Recuerdo tus labios rojos
                    Bm
con lágrimas en los ojos,
        E           E7    A
me abrazaste y apagué la luz.


       D           A
Y esperamos que saliera el sol,
  D          A
amandonos, amandonos.
       D           A
Y esperamos que saliera el sol,
   Bm                  E         E7
haciendo el amor, con tanto amor.

       D           A
Y esperamos que saliera el sol,
  D          A
amandonos, amandonos.
       D           A
Y esperamos que saliera el sol,
   Bm                  E         E7
haciendo el amor, con tanto amor.
        A
Tanto amor...


     A                      E
Sin ti, no puedo estar sin ti.
                F#m
Si desde que te vi
                    E   E7
ya no quiero estar solo.

D                    A
Recuerdo tus labios rojos
                    Bm
con lágrimas en los ojos,
        E           E7    A
me abrazaste y apagué la luz.


       D           A
Y esperamos que saliera el sol,
  D          A
amandonos, amandonos.
       D           A
Y esperamos que saliera el sol,
   Bm                  E         E7
haciendo el amor, con tanto amor.

       D           A
Y esperamos que saliera el sol,
  D          A
amandonos, amandonos.
       D           A
Y esperamos que saliera el sol,
   Bm                  E         E7
haciendo el amor, con tanto amor.
        A
Tanto amor...

____________________________________________________________________

-Los acordes A, E y E7 suenan bien con cejilla o sin ella
A: (x02220) ó (577655)
E: (022100) ó (x79997)
E7: (020130), (020100), (022130) ó (x79797)

-El acorde D me suena mejor sin cejilla
D: (xx0232) ó (x57775)

-El acorde B suena mejor haciendo la cejilla en el 7mo traste
B: (799777) ó (x24432)

-Y el acorde F#m haganlo segun hagan el E, si prefieren la inversión
con cejilla, haganlo en el 9no traste de la 5ta cuerda, y si no, en
la inversión más conocida.
F#m: (244222) ó (x-9-11-11-10-9)

Dejo primero el acorde que uso yo, después las demás inversiones.
Suggest correction
Creating personal tab
Creating personal tab
You can edit any tab online and save it as your Personal.

You can edit, replace or remove any tab part or add personal notes – all changes will be seen only by you.

Personal tabs can be accessed anytime from any device, even offline.
Learn more »
Give kudos to tab author, rate the tab!
1 2 3 4 5
comments
print report bad tab
guest
Wanna post a correction for this tab? Suggest correction