Oops, an error
Loading. Please wait.

Llorarás tab

version 1
version 1

Whole song

13 views 1 this week
no commentswrite comment
1 2 3 4 5
3 more votes to show rating
add to favorites
×
Save as Personal and add changes to this tab that will be seen only by you. Learn more ›
×
You can save this tab as Personal to edit and correct it or add notes. All changes will be seen only by you. Learn more »
launch autoscroll
font size
0
reset
how to read this tab
guitar tuner
edit
Autoscroll
slow
fast
+/-
esc
set tempo
stop
LLORARAS

INTRO:

E-------------------------------------------------------
B---------------1-4-1-1-4-1-4-1-------------------------
G---1-----1-1-3-----------------1---1-1-----------------
D-3---3-1-------------------------3-----3---------------
A-------------------------------------------------------
E-------------------------------------------------------

E-------------6-8-11-8-8-11-8-11-8----------------------
B-6-9-6---9-9----------------------9-6-9-9-6------------
G-------8-----------------------------------------------
D-------------------------------------------------------
A-------------------------------------------------------
E-------------------------------------------------------

B7 - G#m - C7 - B7

B7                  G#m
lloraras asi como yo llore
        C7             B7
sufriras asi como yo sufri
lloraras asi como yo llore
sufriras asi como yo sufri


Estribillo:
C#                           G#m
ya veras tu nunca vas a encontrar
            C7            B7     F
alguien que que te quiera como yo
ya veras tu nunca vas a encontrar
alguien que que te quiera como yo

E-------------------------------------------------------
B---------------1-4-1-1-4-1-4-1-------------------------
G---1-----1-1-3-----------------1---1-1-----------------
D-3---3-1-------------------------3-----3---------------
A-------------------------------------------------------
E-------------------------------------------------------

E-------------6-8-11-8-8-11-8-11-8----------------------
B-6-9-6---9-9----------------------9-6-9-9-6------------
G-------8-----------------------------------------------
D-------------------------------------------------------
A-------------------------------------------------------
E-------------------------------------------------------

B7 - G#m - C7 - B7

B7                 G#m
yo te di todito mi corazon
         C7                  B7
y mi amor yo todo te lo entregue
yo te di todito mi corazon
y mi amor yo todo te lo entregue


Estribillo:
C#                               G#m
y ya ves que a cambio me haces penar
         C7             B7      F
ya veras que pronto vas a llorar
y ya ves que a cambio me haces penar
ya veras que pronto vas a llorar

E-11-13----------------------------11-11----11--------------
B-------13-13-13-11----------13-14-------14----13-14-13-----
G-------------------13-13-13----------------------------13--
D-----------------------------------------------------------
A-----------------------------------------------------------
E-----------------------------------------------------------

E-----------------------------------------------------------
B-4-6-------------------4-4---4-----------------------------
G-----5-5-5-3-------5-6-----6---5-6-5-----------------------
D-------------6-6-6-------------------6---------------------
A-----------------------------------------------------------
E-----------------------------------------------------------

G#m                         C7      B7
lloraras lloraras lloraras como yo llore
G#m                         C7      B7
sufriras sufriras sufriras como yo sufri

punteo(*)
E-------------6-8-11-8-8-11-8-11-8----------------------
B-6-9-6---9-9----------------------9-6-9-9-6------------
G-------8-----------------------------------------------
D-------------------------------------------------------
A-------------------------------------------------------
E-------------------------------------------------------

Realizar el punteo(*) cantando la estrofa de abajo

lloraras asi como yo llore
sufriras asi como yo sufri.

ESPERO QUE LES GUSTE LA CANCION Y RECUERDEN
Y SE TE CABE ESTA ES LA CLAVE.....

            
            
Suggest correction
Creating personal tab
Creating personal tab
You can edit any tab online and save it as your Personal.

You can edit, replace or remove any tab part or add personal notes – all changes will be seen only by you.

Personal tabs can be accessed anytime from any device, even offline.
Learn more »
Give kudos to tab author, rate the tab!
1 2 3 4 5
comments
print report bad tab
guest
Wanna post a correction for this tab? Suggest correction