Oops, an error
Loading. Please wait.

Llorarás tab

version 2
version 2

Whole song

19 views 1 this week
no commentswrite comment
1 2 3 4 5
3 more votes to show rating
add to favorites
×
Save as Personal and add changes to this tab that will be seen only by you. Learn more ›
×
You can save this tab as Personal to edit and correct it or add notes. All changes will be seen only by you. Learn more »
launch autoscroll
font size
0
reset
how to read this tab
guitar tuner
edit
Autoscroll
slow
fast
+/-
esc
set tempo
stop
 (intro sobre: Fm, G#, C y Fm)

e|--------------------------------------------||
B|--------------------------------------------||
G|------------------8-------8---8-------------||
D|---6-----6-6-8-10---10-10--10--10-6---6-6---||
A|-8---8-8----------------------------8-----8-||
E|--------------------------------------------||

(Ahora hace lo mismo pero una octava más arriba)

e|---------------------10-----10---10----------------||
B|----9-------9-9-11-13--13-13--13---13-9----9-9-----||
G|-10---10-10-----------------------------10-----10--||
D|---------------------------------------------------||
A|---------------------------------------------------||
E|---------------------------------------------------||

(Solo te teclado, Sobre: C#, G#, C y Fm) x2

Si keres hacerlo con la guitarra, seria asi:

e|---4---4---------------------------------||
B|-6---6---6-4---4-4-----4---4-------------||
G|-------------5-----5-5---5---5-----------||
D|-------------------------------6-3-6-6-3-||
A|-----------------------------------------||
E|-----------------------------------------||
(Esto lo hace otra vez, una octava mas arriba)

Fm                     G#
Lloraras asi como yo llore
        C              Fm
Sufriras asi como yo sufri
Fm                     G#
Lloraras asi como yo llore
        C              Fm
Sufriras asi como yo sufri


C#                         G#
Ya veras tu nunca vas a encontrar
            C               Fm
Alguien que, que te kiera como yo
C#                         G#
Ya veras tu nunca vas a encontrar
            C               Fm
Alguien que, que te kiera como yo


--------------------------------------------------------------------------
(Repite todo el tema de nuevo, solo cambia la letra y dice: ?Cumbia norteña, oh no?)
--------------------------------------------------------------------------

Fm                     G#
Yo te di, todito mi corazon
         C                   Fm
Y mi amor, yo todo te lo entregue
Fm                     G#
Yo te di, todito mi corazon
         C                   Fm
Y mi amor, yo todo te lo entregue

C#                           G#
Y ya ves, que a cambio me hace penar
          C                 Fm
Ya veras ke pronto vas a llorar
C#                           G#
Y ya ves, que a cambio me hace penar
          C                 Fm
Ya veras ke pronto vas a llorar!


(Alto punteo sobre: G#, C y Fm)
(Dice: ?Estoy seguro ke vas a llorar?)

e|-11-11/13----------------------11-11/13-----------------------||
B|----------13-13-13-11-------------------13-13-13-11-----------||
G|----------------------13-13-13----------------------13-13-13--||
D|--------------------------------------------------------------||
A|--------------------------------------------------------------||
E|--------------------------------------------------------------||

e|----------11-11/13----10/11-----------||
B|-11-11/13----------13-------13-11-----||
G|----------------------------------13--||
D|--------------------------------------||
A|--------------------------------------||
E|--------------------------------------||


e|-------------------------------------------------------||
B|-------------------------------------------------------||
G|-8-8/10---------------------8-8/10---------------------||
D|--------10-10-10-7-----------------10-10-10-7----------||
A|-------------------11-11-11-------------------11-11-11-||
E|-------------------------------------------------------||

e|--------------------------------------||
B|--------------------------------------||
G|--------8-8/10----7/8-----------------||
D|-8-8/10--------10-----10-8-6----------||
A|--------------------------------------||
E|--------------------------------------||


G#
Lloraras, lloraras
         C        Fm
Lloraras como llore

G#
Sufriras, sufriras
         C         Fm
Sufriras como sufriiiiii


             (Ahora todo junto)

   Lloraras, asi como yo lore    Sufriras asi como yo sufri
e|---------------------10----------10---10----------------||
B|----9-------9-9-11-13-13-11-9--13--13---13-9----9-9-----||
G|-10---10-10----------------------------------10-----10--||
D|--------------------------------------------------------||
A|--------------------------------------------------------||
E|--------------------------------------------------------||

________________________________________________________________________

              Trascripción por Milton - Copyright 2004
______________________________________________________________Te quedo?_

 Supongo ke asi ?esta bien? lo unico ke hay ke escuchar bien son los
tiempo ke maneja el tema, los cambios no son siempre al mismo tiempo.
(Fijate bien)
Dedicado 'Para vos y...para vos!'

            
            
Suggest correction
Creating personal tab
Creating personal tab
You can edit any tab online and save it as your Personal.

You can edit, replace or remove any tab part or add personal notes – all changes will be seen only by you.

Personal tabs can be accessed anytime from any device, even offline.
Learn more »
Give kudos to tab author, rate the tab!
1 2 3 4 5
comments
print report bad tab
guest
Wanna post a correction for this tab? Suggest correction