Oops, an error
Loading. Please wait.

No Soy Yo tab

19 views 1 this week
no commentswrite comment
1 2 3 4 5
3 more votes to show rating
add to favorites
×
Save as Personal and add changes to this tab that will be seen only by you. Learn more ›
×
You can save this tab as Personal to edit and correct it or add notes. All changes will be seen only by you. Learn more »
launch autoscroll
font size
0
reset
how to read this tab
guitar tuner
edit
Autoscroll
slow
fast
+/-
esc
set tempo
stop
1|-------------------|----------------------|-------------------|----------------------|
2|-------------------|----------------------|-------------------|----------------------|
3|-3---3----3--4-----|-4-----4----4---3-----|-3---3----3--4-----|-4-----4----4---3-----|
4|--4---4-----4--6-3-|---6-3---6-3--6---4---|--4---4-----4--6-3-|---6-3---6-3--6---4---|
5|---6----6----------|--------------------6-|---6----6----------|--------------------6-|
6|-------------------|----------------------|-------------------|----------------------|

1|-6---6---6--7----|-7----7----7--6-----|-6---6---6--7----|-7----7----7-----------|
2|--7---7---7--9---|--9----9----9---7---|--7---7---7--9---|--9----9----9----------|
3|---8---8------10-|---10---10--------8-|---8---8------10-|---10---10-----8--8-8-8|
4|-----------------|--------------------|-----------------|-----------------------|
5|-----------------|--------------------|-----------------|-----------------------|
6|-----------------|--------------------|-----------------|-----------------------|


1|-------------------------------------------------------------------------------------------------|
2|-------------------------------------------------------------------------------------------------|
3|-------------------------------------------------------------------------------------------------|
4|-6/8--6-8-8h9-8-6------------6/8---6-8-8h9-8-6------------6/8---8-8-6-8-6-4-4h6--9-9-8-9-8-6-6h8-|
5|------------------9-8--6---6-------------------9-8--6---6----------------------------------------|
6|-------------------------9----------------------------9------------------------------------------|

1|---------------------------------------------------------------------------------------
2|-9/11--9-11-11h12-11-9-------------------9/11--9-11-11h12-11-9-------------------9/11--
3|-----------------------11-10--10h11-10-8-----------------------11-10--10h11-10-8-------
4|---------------------------------------------------------------------------------------
5|---------------------------------------------------------------------------------------
6|---------------------------------------------------------------------------------------

1|------------------------------------------------------------|
2|--11-11-9-11-9-7-7h9--12-12-11-12-11-9-9h11-----------------|
3|---------------------------------------------11-10-8--8-8-8-|
4|------------------------------------------------------------|
5|------------------------------------------------------------|
6|------------------------------------------------------------|

D#m       C#        B         D#m
Si, si tuviera la suerte de besarte
como lo hace el
 C#              B           D#m
sabrias que he nacido para amarte
       C#          B         D#m
que fui echo solo para acariciarte
     G#m             Bb
pero no soy yo, pero no soy yo

D#m       C#        B       D#m
Si, si pudiera hablar y contarte
            C#         B         D#m
que tengo el sol y la luna para darte
       C#       B               D#m
y un ramito de flores que esta tarde
    G#m             Bb
robe para vos, pero no soy yo

      D#m
No soy yo
                   C#
quien duerme en tu cama
    B                  D#m
cansado de amarte con ganas
no soy yo
              C#
quien besa tu boca
      B                D#m
no soy quien te vuelve loca
no soy yo
                   C#
quien duerme en tu cama
    B                  D#m
cansado de amarte con ganas
no soy yo
              C#
quien besa tu boca
      B                D#m
no soy quien te vuelve loca
   G#m            Bb
ese no soy yo, ese no soy yo
      D#m
no soy yo

            
            
Suggest correction
Creating personal tab
Creating personal tab
You can edit any tab online and save it as your Personal.

You can edit, replace or remove any tab part or add personal notes – all changes will be seen only by you.

Personal tabs can be accessed anytime from any device, even offline.
Learn more »
Give kudos to tab author, rate the tab!
1 2 3 4 5
comments
print report bad tab
guest
Wanna post a correction for this tab? Suggest correction