Oops, an error
Loading. Please wait.

Gracias A Tí tab

71 views 1 this week
no commentswrite comment
1 2 3 4 5
3 more votes to show rating
add to favorites
×
Save as Personal and add changes to this tab that will be seen only by you. Learn more ›
×
You can save this tab as Personal to edit and correct it or add notes. All changes will be seen only by you. Learn more »
launch autoscroll
font size
0
reset
how to read this tab
guitar tuner
edit
Autoscroll
slow
fast
+/-
esc
set tempo
stop
Ola amigos, esta vez vengo a dejarles una cancion, tal vez no muy conocida
pero que la vdd esta muy bonita, espero les guste.
Los Claxons - Gracias a ti


ok, la cancion esta en Fa#, asi k usen capo en el segundo traste.
Empieza con un arpegio, aki se los pondre:


      Desde que te conocí,      desde que tu estas aquí,                |
6-0------------------------0----------------------------0---------------|
5--2------------------------2----------------------------x--------------|
4---2------------------------1-2--------------------------2-------------|
3----1-----------------------------------------------------2------------|
2-----------------------------------------------------------0-----------|
1------------------------------------------------------------0----------|
                                                                        |
    la luna brilla de un nuevo color,                                   |
6--------------------------------------------------------
5----------------2---------------------------------------
4-------2---------4--------------------------------------
3---------1-------4--------------------------------------
2-------------0--0---------------------------------------               |
1----------------0---------------------------------------               |
                                                                        |
        y entra en mi,       enseñame a amar,                           |
6--0------------------0----------------------0---------------           |
5---2------------------2----------------------x--------------           |
4----2------------------1-2--------------------2-------------           |
3-----1-----------------------------------------2------------           |
2------------------------------------------------0-----------           |
1-------------------------------------------------0----------           |

   dame un motivo que me invite a volar
6--------------------------------------------------------
5---------------2----------------------------------------
4-----2----------4---------------------------------------
3-------1--------4---------------------------------------
2-----------0---0----------------------------------------
1---------------0----------------------------------------

       contigo,   tu mi vida,mi amor, mi adoracion,
6--0-------0---------------0---------------------------------
5---2--------2--------------x-------------------2------------
4----2--------1-2------------2---------2---------4-----------
3-----1-----------------------2------------1-----4-----------
2------------------------------0-------------0--0------------
1-------------------------------0---------------0------------


Amaj                      B
y no existe ya la distancia,
        C#m   B         A      F#m     A     B
gracias ti , gracias a ti hoy puedo vivir?.,


E            Amaj7            B     E           Amaj7  B
te haz convertido en mis sueños, algo mas que una ilusión
    E          Amaj7     B           C#m
no me importa nada si estas junto a mi,
        Amaj7              B
tu me hisiste volver a sentir..,


Puente musical: E, Amaj7, B x 2


(en esta parte pueden arpegiar como al principio o tokar los
acoresk les pongo aki, es su eleccion)

E                  E/Eb             Amaj 7
 desde que te conoci, desde que te vi,
                   B
yo por ti no imagine que podría amarte asi,
E             E/Eb                 Amaj7         B
 y no quiero mas que estar junto a ti para siempre,


A                     B
y no existe ya la distancia,
          C#m   B        A
gracias a ti, gracias a ti,
      F#m    A      B
hoy puedo vivir mi vida,


E             Amaj7       B     E           Amaj7     B
Te haz convertido en mi sueños, algo mas que una ilusión,
    E          Amaj7    B         C#m
no me importa nada si tu estas aquí,
         Amaj7             B
tu me hiciste volver a sentir,
E             Amaj7        B     E           Amaj7     B
te haz convertido en mis sueños, algo mas que una ilusión,
    E          Amaj7   C#m  Amaj7   E     Amaj7 - B
no me importa nada si tu estas aquiii!!!.....

          E   (se repite el circulo k lleva el coro)
gracias a ti!!!,
desde que te conoci,
desde que te vi..
desde que te vi,
desde que te conoci,
desde que te vi

            
            
Suggest correction
Creating personal tab
Creating personal tab
You can edit any tab online and save it as your Personal.

You can edit, replace or remove any tab part or add personal notes – all changes will be seen only by you.

Personal tabs can be accessed anytime from any device, even offline.
Learn more »
Give kudos to tab author, rate the tab!
1 2 3 4 5
comments
print report bad tab
guest
Wanna post a correction for this tab? Suggest correction