Oops, an error
Loading. Please wait.

Estas Aquí tab

by Clip
8 views 1 this week
no commentswrite comment
1 2 3 4 5
3 more votes to show rating
add to favorites
×
Save as Personal and add changes to this tab that will be seen only by you. Learn more ›
×
You can save this tab as Personal to edit and correct it or add notes. All changes will be seen only by you. Learn more »
launch autoscroll
font size
0
reset
how to read this tab
guitar tuner
edit
Autoscroll
slow
fast
+/-
esc
set tempo
stop
Intro: 

e|------------------------------------------------------
b|-----3------3-----3--------------3-----3-----3-------
g|----0---0-----0-----0---0------0---0-----0-----0---0--
d|---4------4-----4-----4------4------4-----4-----4----
a|3--------------------------2-------------------------
e|----------------------------------------------------


e|----------------------------------------3-3----3--2-2-
b|-----3------3-----3--------------3------3-3----3--3-3-
g|----0---0-----0-----0---0------0---0-----------------
d|---4------4-----4-----4------4------4---0-0----0--0-0-
a|1--------------------------0-------------------------
e|----------------------------------------------------


SOL                          MIm       
Pienso en ti cada vez que quiero recordar
      DO               DOm
tu forma de mirar que no puedo cambiar
SOL                MIm 
Estas aqui esperando mucho mas de mi
 DO                   DOm           DO SIm    RE RE4 RE     
creando una ilusion para que piense como      tu
     DO                SOL-RE SIm    MIm    
Estando junto a ti      tengo todo lo que 
DO               DOm
tu me puedes dar de una amistad
DO
Hey hey 
          RE RE5 RE4 RE  DO                  SOL     
estas aqui               no hay nada que hacer 
DO                  RE    MIm     DO             Intro
 y siempre en mi mente estas     no puedo fallar

(Todo lo mismo)
Todo empezo cuando esperabamos que todo
tuviera una razon que explique al corazon
Dentro de mi creo que hubo siempre un lugar
para poder soñar para que piense como tu..........

Hey hey.......(twice)

estas aqui
DO                  RE    MIm     DO          RE   Intro
Espera un momento mas que esta vez no puedo fallar.

    MIm        DO     RE4    RE5
E    3             3      3      5
B    3             3      3      3
G    0               0      2      2
D    2                2      0      0
A    2               3      X      X
E    0               X      X      X
Suggest correction
Creating personal tab
Creating personal tab
You can edit any tab online and save it as your Personal.

You can edit, replace or remove any tab part or add personal notes – all changes will be seen only by you.

Personal tabs can be accessed anytime from any device, even offline.
Learn more »
Give kudos to tab author, rate the tab!
1 2 3 4 5
comments
print report bad tab
guest
Wanna post a correction for this tab? Suggest correction