Oops, an error
Loading. Please wait.

Confiaré tab

version 2
version 2

Whole song

91 views 1 this week
no commentswrite comment
1 2 3 4 5
3 more votes to show rating
add to favorites
×
Save as Personal and add changes to this tab that will be seen only by you. Learn more ›
×
You can save this tab as Personal to edit and correct it or add notes. All changes will be seen only by you. Learn more »
launch autoscroll
font size
0
reset
how to read this tab
guitar tuner
edit
Autoscroll
slow
fast
+/-
esc
set tempo
stop
En la intro los acordes son estos:
Cm7 Gm Fm Gm
Y el punteo es:
e:---------------------------------------------
B:--11/13---------------------------9--9--9-8--
G:--10/12-12-10-8----10/12-10--10--10-10-10-8--
D:----------------10---------------------------
A:---------------------------------------------
E:---------------------------------------------
                                                         x2
e:---------------------------------------------
B:--11/13---------------------------9--9--9-8--
G:--10/12-12-10-8----10/12-10--10--8-8-7-7-5--3
D:----------------10---------------------------
A:---------------------------------------------
E:---------------------------------------------

Y los acordes de la estrofa son:
Estrofa 1:
Cm                       Gm   Fm
Corro a ti tu eres mi refugio
Cm                       Gm   Fm
Tu me guardas eres mi escudo
Cm                       Gm   Fm
Solo en ti yo vivo bien seguro
Cm                 Gm Fm
A tu lado yo caminare

El punteo del coro es:

Coro:
Cm         Gm            Fm      Gm
Confiare          tu eres mi esperanza
e:----11-11-11-10----------------------
B:----------------11-11/13-------------
G:-------------------------------------

Cm     Gm        Fm      Gm
Creere   me das de tu confianza
e:--13-13-13-11-13/15------------------
B:--------------------13---------------
G:-------------------------------------

Cm     Gm       Fm        Gm
Cantare   tu eres mi victoria
e:----11-11-11-10----------------------
B:----------------11-11/13-------------
G:-------------------------------------


              Cm       Gm             Fm    Gm
           Te exaltare a ti sea la gloria Jesus
e:-----------------------13/15-15--13-13/15-----
B:----------------------------------------------
G:------8-8/10----------------------------------
D:--8-9-----------------------------------------

Y luego la intro otra vez la primera estrofa y el coro despues del coro
un parte donde esta el puente es :

Cm Gm Fm Gm

e:-10--13/6--8-8-10----
B:--------------------- X2
G:---------------------

Solo
e:----------------------------------8-------10--11-10-11-13---------
B:---------8-------8-------11---------------------------------------
G:---8-7-8---8-7-8---8-7-8----8-7-8---8-7-8-------------------------

e:---11-10-11-15--13-11-15-15-15-15-15-15---------------------------
B:------------------------------------------------------------------
G:------------------------------------------------------------------

Luego el coro el primero es mas lento y el ultimo mas rapido
//Cm          Fm               Gm
  Confiare   tu eres mi esperanza
Cm       Fm         Gm
Creere   me das de tu confianza
Cm       Fm         Gm
Cantare   tu eres mi victoria
    Cm      Gm         Fm        Gm
Te exaltare a ti sea la gloria Jesus//

Despues termina con la intro Y Termina la cancion
Nos vemos
Kevin14moon

            
            
Suggest correction
Creating personal tab
Creating personal tab
You can edit any tab online and save it as your Personal.

You can edit, replace or remove any tab part or add personal notes – all changes will be seen only by you.

Personal tabs can be accessed anytime from any device, even offline.
Learn more »
Give kudos to tab author, rate the tab!
1 2 3 4 5
comments
print report bad tab
guest
Wanna post a correction for this tab? Suggest correction