Oops, an error
Loading. Please wait.

Vida Mía bass

261 views 3 this week
no commentswrite comment
1 2 3 4 5
3 more votes to show rating
add to favorites
×
Save as Personal and add changes to this tab that will be seen only by you. Learn more ›
×
You can save this tab as Personal to edit and correct it or add notes. All changes will be seen only by you. Learn more »
launch autoscroll
font size
0
reset
guitar tuner
edit
Autoscroll
slow
fast
+/-
esc
set tempo
stop
Esta es una composición instrumental (Guitar BASS) por Mike X. Zuñiga, es
una de las que más me encanto. Hay se las dejo, es seguro que le faltan
los detalles pero la idea ya esta puesta, haber si la sacan es solo un
poco de práctica.

Algo de lo que yo utilizo en esta transcripción, es:
U = ligadura
/ = Arrastre o deslizamiento (slide).
+v = Tensión de cuerda, estirar la cuerda pisando nota. Técnica mano
izquierda.
Fla = significa rasguear sobre una sola nota, con índice, medio, anular
y chico o al revés.
Guíense con la canción, poco a poco se darán cuenta. Por si acaso en la
canción entra algunas técnicas como de slap, pluck doble y simple, rasgueo
flamenco, tanto técnicas de mano derecha como algo de izquierda.

Intro:

G:--------------------------9-11-9-11-9-11-11-11-9-11-:     (5)
D:-9-11-9-11-9-11-11-11-9-11--------------------------:-11:
A:----------------------------------------------------:

G:--------------------------------:
D:-9-9-9-9---------7-7-7-7--------:
A:---------7-7-7-7----------------:
E:------------------------------4-:
B:--------------------------2/4---:

G:--------------------------9-11-9-11-9-11-11-11-9-11-:      (3)
D:-9-11-9-11-9-11-11-11-9-11--------------------------:-11-:
A:----------------------------------------------------:

G:-----------------------------:
D:-9-9-9-9---------7-7-7-7---6-:
A:---------7-7-7-7-------------:
E:--------------------------4--:

Aquí entra con(slap o thum)combinado con(pluck o pop)dobles:Vida mía....
G:--6-----------------------------:----6-X-------------------------------:
D:---------4-X------7-------6-X---:--------------4-X------7-----6--6-----:
A:-4--2U4-----------------------2-:-2/4----2U4---------------------------:
E:-------2-----4-4/5----5-4-------:------------2-----4-4/5---5-4-----4-4-:

G:--6-------------------------------:--X------X-------:------------------:
D:----4-2U4---4-X-------7-X-----6---:-X?2U4?-X--2-2U4-:-------X-----X----:
A:-4--------------------------------:-----------------:------X-----X-----:
E:----------2-----4-4/5-----5-4---2-:-----------------:-2-2----4-4---4-4-:

PUENTE: (utiliza rasgueo flamenco, pluck, slap acomodadamente.
G:----------------------------------:------------------9-11/13-11----9---:
D:-9-11-9-11-9-11-11.11-9-11--9-11/-:(fla)(11-11-11-11)-----------9-9?11-:
A:----------------------------------:------------------------------------:

G:--------------------------------------------:
D:----------------------2-4-2-4-2-4-4/6-4-2---:
A:-2-4-2-4-2-4-4--4-2-4---------------------4-:
E:--------------------------------------------:

G:-------------------------------------:---------------------------------:
D:----------------------2-4-2-4-2-4----:-------------2-4-2-4-2-4-4-X-2U4-:
A:-2-4-2-4-2-4-4--4-2-4----------------:-2-4-2-4-2-4---------------------:
E:-----------------------------------54:---------------------------------:

G:-----------------------------:
D:---------2-2-2-2-----------6-:
A:-2-2-2-2---------0-0-0-0-----:
E:--------------------------4--:

Vida mia....
Luego:
G:----------------6--7--------------------------------------------------:
D:----------------------------------------------------------------------:
A:-2/4-4-4-4-4-4-4--5--7-7-7-7-7-7/12/10----------------11--12/---------:
E:---------------------------------------12/5-5-5-5/9-12--12----4-4-4-4-:

G:--4--5---------6--7-------------------------------------------:
D:----------------------------------14--14/------------------7--:
A:-2--3---4-4-4-4--5---7-7-7-7-7---14-14------------------4U7---:
E:--------------------------------------------5-5-5-5-5-------4-:

Intervalo....
G:-2/9------------:-9/11-9--------------::-11/13-9-9---------:
D:----------------:--------11-9------7/-::----------11-------:
A:-----9/7/5------:-------------11-9/7/-::-------------6-8-2-:
E:-----------5-/4-:---------------------::-------------------:

G:----6-X---------------------------:----6-X-------9-X-------------:
D:-----------4-X-------7-X-----6-X--:-----------------------7-X----:
A:-2/4----2-------------------------:-2/4----5-5U7-----------------:
E:---------2------4--5-----5-4-----5:-------------------7-5------4-:

G:--4------------:
D:-6-6-4/6-------:
A:---------0U2/4-:

G:---6-X--------------------------:--------------:-------------------:
D:----------4-X-----7-X-----6-X---:----------2U4-:--------X-----X----:
A:-4-----2------------------------:--------------:------X------X-----:
E:--------2-----4-5-----5-4-----4-:-2-2-2-2------:-2-2-----4-4---4-4-:

G:---------------------------: (3)
D:-9-11-9-11-9-11-11-11-9-11-:
A:---------------------------:

G:------:-11+v-9-------9-X-----:
D:-9-11-:-------11-11U9----11-:
A:------:----------------------:
E:------:----------------------:

G:-----6-X--------6-X---------6-X----:-9U11U9-----------------------:
D:---------------------2U4-----------:-------11U911U9U11------------:
A:-2/4------2-2/4---------2/4------4-:------------------11U9U11-----:
E:-----------------------------------:-------------------------12U9-:

G:-----6-X-------6-X----------:
D:--------------------2-4-2---:
A:-2/4------2/4-------------4-:
E:----------------------------:

QUE DIOS LES BENDIGA!!!
Saludos a mis hermanos del  de Rio Seco (Mercado el Carmen).
Suggest correction
Creating personal tab
Creating personal tab
You can edit any tab online and save it as your Personal.

You can edit, replace or remove any tab part or add personal notes – all changes will be seen only by you.

Personal tabs can be accessed anytime from any device, even offline.
Learn more »
Give kudos to tab author, rate the tab!
1 2 3 4 5
comments
print report bad tab
guest
Wanna post a correction for this tab? Suggest correction