Oops, an error
Loading. Please wait.

Atrévete tab

by Coda
131 views 3 this week
no commentswrite comment
1 2 3 4 5
3 more votes to show rating
add to favorites
×
Save as Personal and add changes to this tab that will be seen only by you. Learn more ›
×
You can save this tab as Personal to edit and correct it or add notes. All changes will be seen only by you. Learn more »
launch autoscroll
font size
0
reset
how to read this tab
guitar tuner
edit
Autoscroll
slow
fast
+/-
esc
set tempo
stop
Intro 1
|---------|--|--------------|
|---------|--|--------------|
|---------|--|--------------|
|-66-44/6-|X3|------2-----6-|
|-44-22/4-|--|-00-2---0-2-4-|
|---------|--|--------------|

Intro 2
|----------------------------------------|
|----------------------------------------|
|----------------------------------------|
|-66-44/6-44-22h4----------------2-----6-|
|-44-22/4-22-00h2-77-66/7-7-00-2---0-2-4-|
|-----------------55-44/5-5--------------|

Versos(llevan unos arreglillos pero no los voy a poner)
*-toquen varias veces
|----------|
|----------|
|----------|
|-6*-4*-2*-|
|-4*-2*-0*-|
|----------|

Coro
*-toquen varias veces
~-dejen sonar las cuerdas
|-------------------------|
|-------------------------|
|-------------------------|
|----4*-6*-2*-4-6-4-6-2~~-|
|-2*-2*-4*-0*-2-4-2-4-0~~-|
|-0*----------------------|

Hay una especie de solo ke todavia no sako
pero lleva los acordes del verso

Pre-solo
.-varias veces y muteado
|--------------|
|--------------|
|--------------|
|-4-2-6.-4---2-|
|-2-0-4.-2-6-0-|
|----------4---|

Despues va el solo ke tampoco lo eh sacado
(soy muy flojo para estas cosas)
el ritmo es este
|----------|--|----------|--|-----|
|----------|--|----------|--|-----|
|----------|--|----------|--|-----|
|-6*-4*-2*-|x2|10*-6*-8*-|x2|-6~~-|
|-4*-2*-0*-|--|8*--4*-6*-|--|-4~~-|ultima nota
|----------|--|----------|--|-----|

Puente
|----------|--|----|
|----------|--|----|
|----------|--|----|
|-6/4/6~~/-|X3|-2.-|
|-4/2/4~~/-|--|-0.-|
|----------|--|----|

            
            
Suggest correction
Creating personal tab
Creating personal tab
You can edit any tab online and save it as your Personal.

You can edit, replace or remove any tab part or add personal notes – all changes will be seen only by you.

Personal tabs can be accessed anytime from any device, even offline.
Learn more »
Give kudos to tab author, rate the tab!
1 2 3 4 5
comments
print report bad tab
guest
Wanna post a correction for this tab? Suggest correction