Oops, an error
Loading. Please wait.

Aún tab

version 2
version 2

Whole song

Interactive

by Coda
196 views 1 this week
no commentswrite comment
1 2 3 4 5
3 more votes to show rating
add to favorites
×
Save as Personal and add changes to this tab that will be seen only by you. Learn more ›
×
You can save this tab as Personal to edit and correct it or add notes. All changes will be seen only by you. Learn more »
launch autoscroll
font size
0
reset
how to read this tab
guitar tuner
edit
Autoscroll
slow
fast
+/-
esc
set tempo
stop
intro
   Bm7            G
e----2-2---5-3--2-2h3-------------10------
B--3------------------3--------10---------
G--2------------------------11------------
D--4--------------------------------------
A-----------------------------------------
E-----------------------------------------

Bm7
Otra vez 
            G
camino sin direccion
      Bm            Bm7
acompañado por la inmensidad
        G            A
de una noche fria y gris
Bm7
y la luna
                G
que llena el crepusculo
             Bm
me baña en matices
      Bm7  
de nostalgia
    G              A
al reflejar tu rostro
               G
me siento tan triste amor
     Bm
tan infeliz
     Bm7
tan lleno de ansiedad
               G
no se que nos separo
    Bm
ni como negarle
A
a mi corazon

           Bm7
que aun te amo
    F#m      Bm 
que aun te extraño
    F#m       G
los dias sin ti
     F#m    Em
son como morir
      G   Bm  Bm7   A
si au u u u u u un

te amo

   Bm7            G
e----2-2---5-3--2-2h3-------------10------
B--3------------------3--------10---------
G--2------------------------11------------
D--4--------------------------------------
A-----------------------------------------
E-----------------------------------------


Bm7
donde estas
              G
no quiero perderte, no oh no
         Bm
no se si piensas en mi 
     Bm7 
como yo en ti
    G                A 
oh me haces tanta falta
              G
me vale el orgullo
       Bm
si me siento asi
         Bm7
si eres gran parte de mi
        G
donde supones que
     Bm           A
debo ocultar el dolor

que llevo aqui


           Bm7
si aun te amo
    F#m      Bm 
si aun te extraño
    F#m       G
los dias sin ti
     F#m    Em
son como morir
      G   Bm  Bm7   A
si au u u u u u un

te extraño


solo (piano)
       D                         A
e---------------------------------------------
B---10-10--------------------10-10------------
G---------12-12--11-11------------------------
D----------------------12-12------------------
A---------------------------------------------
E---------------------------------------------
     Bm                  A                              Em
e---10--9-9-------------10-10--9-9-----------9-10---12-12-----
B-----------10-10------------------10-10----------------------
G-----------------11-11------------------11-------------------
D-------------------------------------------------------------
A-------------------------------------------------------------
E-------------------------------------------------------------
    A                 Em 
e------------------------------------------
B-----------8-7----------------12-10-------
G-------6-7-----9-7-------6-9--------------
D---7-9---------------7-9------------------
A------------------------------------------
E------------------------------------------

Solo (Guitar)

Bm  F#m G.....Bm F#m Em........G A Bm ...A


               G
no se que nos separo
     Bm  
que puede hacer
      Bm7
este abismo entre los dos
                G
no quiero esta soledad
    Bm
te quiero a ti
     A
te quiero solo a ti i

           Bm7
si aun te amo
    F#m      Bm 
si aun te extraño
    F#m       G
los dias sin ti
     F#m    Em
son como morir
      G   Bm  Bm7   A
si au u u u u u un

te amo

   Bm7            G
e----2-2---5-3--2-2h3-------------10------
B--3------------------3--------10---------
G--2------------------------11------------
D--4--------------------------------------
A-----------------------------------------
E-----------------------------------------

            
            
Suggest correction
Creating personal tab
Creating personal tab
You can edit any tab online and save it as your Personal.

You can edit, replace or remove any tab part or add personal notes – all changes will be seen only by you.

Personal tabs can be accessed anytime from any device, even offline.
Learn more »
Give kudos to tab author, rate the tab!
1 2 3 4 5
comments
print report bad tab
guest
Wanna post a correction for this tab? Suggest correction