Oops, an error
Loading. Please wait.

Aún bass

version 1
version 1

Whole song

Interactive

by Coda
134 views 3 this week
no commentswrite comment
1 2 3 4 5
3 more votes to show rating
add to favorites
×
Save as Personal and add changes to this tab that will be seen only by you. Learn more ›
×
You can save this tab as Personal to edit and correct it or add notes. All changes will be seen only by you. Learn more »
launch autoscroll
font size
0
reset
guitar tuner
edit
Autoscroll
slow
fast
+/-
esc
set tempo
stop
Antes que nada quisiera Dedicar este Tab a la niña que me ha inspirado a hacer muchas cosas, los dos
hemos vivido muchas cosas y aunque ella tal vez ya no regrese conmigo, quiero que sepa que es a la primera
y muy probablemente la unica persona que amare durante mucho tiempo. Este Tab va dedicado para
Stephany Crystal Sanabria Rodriguez De la generacion 99 del unico e incomparable CCH Vallejo.


Para que la rola se escuhe chida necesitaras un bajo de
5 cuerdas ya que utiliza las notas mas altas en algunas partes

Intruduccion (piano)

G|-------------------------|
D|-------------------------|
A|-----6-------------------|
E|--------------4----------|
B|-------------------------|

Despues ya viene el Primer Verso Junto con el Piano Solamente:

G|-------------------------|------------------------|
D|-------------------------|------------------------| x(2)
A|-----6-------------------|---3---------------1----|
E|--------------4----------|----------4-------------|
B|-------------------------|------------------------|

G|-------------------------|------------------------|
D|-------------------------|------------------------|
A|----------3--------------|------------------------|
E|----4--------------------|----1----4----6/--------|
B|----------------4--------|--------------------0---|

Esta es la Parte Del Coro:

G|-------------------------|------------------------|
D|-------------------------|------------------------|
A|--6--666-----------------|----5--33---------------|
E|-------------------------|------------------------|
B|-----------4--4--4-44----|------------1--1--1-11--|

G|-------------------------|------------------------|---------------------------| * es opcional que toques
D|-------------------------|------------------------|---------------------------| esta nota y solo es en la
A|---1-1-1-1---------------|-----------------3-3-3--|--0*----1-1-1-1------------| primera vuelta del coro
E|------------4-4-3-3-1-1--|--4-4-4--1-1-1----------|---------------------------|
B|-------------------------|------------------------|---------------------------|

G|-------------------------|------------------------|---------------------------|
D|-------------------------|------------------------|---------------------------|
A|-------------------------|--\6--4-----------------|---------------------------|
E|-------------4-----------|--------6--4------------|---------------------------|
B|-----4-------------------|------------------------|---------------------------|

Ahora Este es el Otro Verso:

G|-------------------------|------------------------|---------------------------|
D|-------------------------|------------------------|---------------------------|
A|----6--------------------|------------------------|-------1-1-1-1-1-----------|
E|-------------4-----------|---------------4--------|---------------------------|
B|-------------------------|---1--------------------|---------------------------|

G|-------------------------|------------------------|---------------------------|
D|-------------------------|------------------------|---------------------------|
A|-----------3-------------|----------------3-------|-------1-1-1-1-1-----------|
E|-----4-------------------|-----1------------------|---------------------------|
B|-----------------4---4---|------------------------|---------------------------|

Se Vuelve a Repetir el Coro:
.
.
.
.
.

En Esta Parte Van El Piano y El Bajo Solos:

G|-------------------------|------------------------|---------------------------|
D|-------------------------|------------------------|---------------------------|
A|-------------------------|---------1--------------|---------------------------|
E|-------------4-----------|---------------3--------|---444444-----6---66666----|
B|----4--------------------|---/1-------------------|---------------------------|

G|-------------------------|------------------------|---------------------------|
D|-------------------------|------------------------|---------------------------|
A|----3-3------------------|----3-3-----------------|--------------3------------|
E|----------44------1------|----------44-----1------|---4----66---------66666---|
B|-------------------------|------------------------|---------------------------|

Ahora viene el Ultimo Verso:

G|-------------------------|------------------------|---------------------------|
D|-------------------------|------------------------|---------------------------|
A|----------3-3------------|------------------------|---------1-1-1-1-----------|
E|---4-4-------------------|------1-1-------3-3-----|---------------------------|
B|------------------44444--|------------------------|---------------------------|

Se Repite El Coro Por Ultima Vez

.
.
.
.
.

Esta es la Forma en Que Termina la Rola

G|-------------------------|------------------------|---------------------------|
D|-------------------------|------------------------|---------------------------|
A|------6------------------|---------6--------------|---------------------------|
E|--------------4----------|------------------------|-----4---------------------|
B|-------------------------|------------------------|---------------------------|

Dudas,Comentarios,Traumas,Correcciones,Sugerencias,Etc.   escribanme a  elmoscoactuario_fc@

Fue un gusto hacer esta transcripcion de este Tab y les invito a que toquen el Bajo Electrico
ya que el mejor amigo del hombre aparte del perro es el Bajo Electrico y Mejor si es de 5 Cuerdas o Mas.

            
            
Suggest correction
Creating personal tab
Creating personal tab
You can edit any tab online and save it as your Personal.

You can edit, replace or remove any tab part or add personal notes – all changes will be seen only by you.

Personal tabs can be accessed anytime from any device, even offline.
Learn more »
Give kudos to tab author, rate the tab!
1 2 3 4 5
comments
print report bad tab
guest
Wanna post a correction for this tab? Suggest correction