Oops, an error
Loading. Please wait.

Etérnamente bass

version 1
version 1

Whole song

Interactive

by Coda
116 views 1 this week
no commentswrite comment
1 2 3 4 5
3 more votes to show rating
add to favorites
×
Save as Personal and add changes to this tab that will be seen only by you. Learn more ›
×
You can save this tab as Personal to edit and correct it or add notes. All changes will be seen only by you. Learn more »
launch autoscroll
font size
0
reset
guitar tuner
edit
Autoscroll
slow
fast
+/-
esc
set tempo
stop
¿Que onda Banda Rockera?, soy yo de nuevamente con otra tablatura de este
grupo llamado coda, un grupo bueno, solo que poco comercial y por lo mismo
casi nadie conoce estas rolas que son en pocas palabras poemas, y para no
perder la costumbre, esta rola tambien se la dedico a esa persona que nunca
olvidare, asi es, esta rola la vuelvo a dedicar a esa personita tan
especial en mi vida, Stephany Crystal Sanabria Rodriguez, otra vez estoy
ayudando a muchos chavos a poder tocar estas canciones tan padres a sus
novias para enamorarlas mas y gracias a tus desprecios, cariños, reproches,
etc. Cada vez hare mas tablaturas para y por ti.

¡¡Aqui vamos Banda!!

Para empezar, esta rola si se puede tocar tranquilamente en un bajo de 4
cuerdas, pero como yo tengo uno de 5 y otro de 6, ya me acostumbre a poner
la cuerda extra en mis tablaturas, pero insisto en que no inlfuye en lo
absoluto para el desarrollo de la cancion.

La afinacion es la usual G, D, A, E, B.

La cancion empieza con el piano y la guitarra, despues entra el bajo aprox.
en el segundo 8 de la cancion

Introduccion

G|-----------------|-----------------|-----------------|----------------|
D|-----------------|-----------------|-----------------|----------------|
A|-----------------|-----------------|----44444444-----|----22222222----|
E|---------0-------|----00000000-----|-----------------|----------------|
B|-----------------|-----------------|-----------------|----------------|

 |-----------------|-----------------|
 |-----------------|-----------------|
 |-----------------|-----------------|
 |----44444444-----|----55555555-----|
 |-----------------|-----------------|

Verso (Muy parecido a la introduccion)

G|-----------------|-----------------|----------------|
D|-----------------|-----------------|----------------|
A|-----------------|----44444444-----|----22222222----|
E|----00000000-----|-----------------|----------------|
B|-----------------|-----------------|----------------|

 |-----------------|-----------------|
 |-----------------|-----------------|
 |-----------------|----00000000-----|
 |----44444444-----|-----------------|
 |-----------------|-----------------|

G|-----------------|-----------------|----------------|----------------|
D|-----------------|-----------------|----------------|----------------|
A|-----------------|----44444444-----|----00000000----|----22222222----|
E|----00000000-----|-----------------|----------------|----------------|
B|-----------------|-----------------|----------------|----------------|

Pre-coro

G|-----------------|-----------------|----------------|----------------|
D|-----------------|-----------------|----------------|----------------|
A|----44444444-----|----333333333----|----22222222----|----11111111----|
E|-----------------|-----------------|----------------|----------------|
B|-----------------|-----------------|----------------|----------------|

 |-----------------|-----------------|----------------|----------------|
 |-----------------|-----------------|----------------|------------2---|
 |----00000000-----|-----------------|----------------|----------------|
 |-----------------|----44444444-----|----22222222----|---5555555----0-|
 |-----------------|-----------------|----------------|----------------|

Coro (Tambien muy parecido al verso, solo que con arreglitos)

G|-----------------|-----------------|----------------|
D|-----------------|-----------------|----------------|
A|------------24---|----44444444-----|----22222222----|
E|----00000024-----|-----------------|----------------|
B|-----------------|-----------------|----------------|

 |-----------------|-----------------|
 |-----------------|-------------2---|
 |-----------------|----0000000------|  x 2
 |----44444444-----|---------------0-|
 |-----------------|-----------------|

Despues del coro, se repite la segunda parte del verso nada mas

G|-----------------|-----------------|----------------|----------------|
D|-----------------|-----------------|----------------|----------------|
A|-----------------|----44444444-----|----00000000----|----22222222----|
E|----/00000000----|-----------------|----------------|----------------|
B|-----------------|-----------------|----------------|----------------|

Y se vuelve a repetir el pre-coro

G|-----------------|-----------------|----------------|----------------|
D|-----------------|-----------------|----------------|----------------|
A|----44444444-----|----333333333----|----22222222----|----11111111----|
E|-----------------|-----------------|----------------|----------------|
B|-----------------|-----------------|----------------|----------------|

 |-----------------|-----------------|----------------|----------------|
 |-----------------|-----------------|----------------|------------2---|
 |----00000000-----|-----------------|----------------|----------------|
 |-----------------|----44444444-----|----22222222----|------5-55----0-|
 |-----------------|-----------------|----------------|----------------|

Coro

G|-----------------|-----------------|----------------|
D|-----------------|-----------------|----------------|
A|------------24---|----44444444-----|----22222222----|
E|----00000024-----|-----------------|----------------|
B|-----------------|-----------------|----------------|

 |-----------------|-----------------|
 |-----------------|-------------2---|
 |-----------------|----0000000------|  x 2
 |----44444444-----|---------------0-|
 |-----------------|-----------------|

Se repite de nuevo el verso mientras esta el solo de guitarra

G|-----------------|-----------------|----------------|
D|-----------------|-----------------|----------------|
A|-----------------|----44444444-----|----22222222----|
E|----00000000-----|-----------------|----------------|
B|-----------------|-----------------|----------------|

 |-----------------|-----------------|
 |-----------------|-----------------|
 |-----------------|----00000000-----|
 |----44444444-----|-----------------|
 |-----------------|-----------------|

Ahora se repite algo muy parecido al pre-coro, solo que mas sencillo

G|-----------------|-----------------|----------------|----------------|
D|-----------------|-----------------|----------------|----------------|
A|-------4---------|-------3---------|-------2--------|-------1--------|
E|-----------------|-----------------|----------------|----------------|
B|-----------------|-----------------|----------------|----------------|

 |-----------------|-----------------|----------------|----------------|
 |-----------------|-----------------|----------------|------------2---|
 |-------0---------|-----------------|----------------|----------------|
 |-----------------|-------4---------|-------2--------|-----5--55----0-|
 |-----------------|-----------------|----------------|----------------|

Despues solo se repite el coro hasta que acaba la cancion

G|-----------------|-----------------|----------------|
D|-----------------|-----------------|----------------|
A|------------24---|----44444444-----|----22222222----|
E|----00000024-----|-----------------|----------------|
B|-----------------|-----------------|----------------|

 |-----------------|-----------------|----------------|
 |-----------------|-------------2---|----------------| * Asi pueden
 |-----------------|----0000000------|----------------|   acabar la
 |----44444444-----|---------------0-|------------0*--|   cancion
 |-----------------|-----------------|----------------|

¡¡Sale banda!!, espero les haya gustado esta tablatura, faltan unos
pequeñitos detalles en el coro, si alguien de ustedes me puede ayudar a
transcribirlos lo tomare en cuenta.

Ya saben  dudas, comentarios, traumas, sugerencias, reclamos, etc.
escriban a mi correo   elmoscoactuario_fc@ o tambien al
siguiente   elmosco_a_web_o@

            
            
Suggest correction
Creating personal tab
Creating personal tab
You can edit any tab online and save it as your Personal.

You can edit, replace or remove any tab part or add personal notes – all changes will be seen only by you.

Personal tabs can be accessed anytime from any device, even offline.
Learn more »
Give kudos to tab author, rate the tab!
1 2 3 4 5
comments
print report bad tab
guest
Wanna post a correction for this tab? Suggest correction