Oops, an error
Loading. Please wait.

Halcón De Invierno tab

by Coda
28 views 1 this week
no commentswrite comment
1 2 3 4 5
3 more votes to show rating
add to favorites
×
Save as Personal and add changes to this tab that will be seen only by you. Learn more ›
×
You can save this tab as Personal to edit and correct it or add notes. All changes will be seen only by you. Learn more »
launch autoscroll
font size
0
reset
how to read this tab
guitar tuner
edit
Autoscroll
slow
fast
+/-
esc
set tempo
stop
Bueno esta es una de mis favoritas de coda ahi vamos con la tablatura

Los acodes principales son los siguientes

La sost menor/Fa sost mayor/Re mayor/La mayor
             
e.------1----/-----2------/----4----/---5---/
b.------2----/-----2------/----6----/---5---/
g.------3----/-----3------/----6----/---6---/
d.------3----/-----4------/----6----/---7---/
a.------1----/-----4------/----4----/---7---/
E.------1----/-----2------/----4----/---5---/

Intro 

El intro de esta rola esta en dos guitarras acontinuacion pondre 
la parte del intro que toca la guitarra 1

       A#m             F#           RE 

e.-----------1--/------------2--/----------4-/
b.--------2-----/---------2-----/-------6----/
g.-----3--------/------3--------/----6-------/
d.--------------/---------------/------------/
a.--------------/---------------/------------/
E.-1------------/--4------------/-4----------/

(No estoy muy seguro pero a mi me suena bien)

a.-----0-----2-----3-----5-----3-----2-----0----- 


       A#m             F#           RE 

e.-----------1--/------------2--/----------4-/
b.--------2-----/---------2-----/-------6----/
g.-----3--------/------3--------/----6-------/
d.--------------/---------------/------------/
a.--------------/---------------/------------/
E.-1------------/--4------------/-4----------/

Aqui entra la segunda guitarra con los semitonos mientras
la primera repite la parte anterior hasta que empieza a cantar

Aqui esta la parte de la guiatarra dos que es facil ya que son los semitonos

d.------------3-------6---
a.---x7x7x7---1---4---4---    x 2 
E.---x5x7x7-------2-------

Ahora si empieza a cantar y la guitarra uno es la que 
va a llevar todo el ritmo

   Cientos  de veces he   sentido    (en esta parte solo rasguea 2 o 3 veces)

e.------1--/------2---/------4-----/-----------5--/
b.-----2---/-----2----/-----6------/-----------5--/
g.----3----/----3-----/----6-------/-----------6--/
d.---3-----/---4------/---6--------/-----------7--/
a.--1------/--4-------/--4---------/-----------7--/
E.-1-------/-2--------/-4----------/-----------5--/

   que yo no pertenezco   a ti 
 
e.------1--/-------2---/------4-----/-----------5--/
b.-----2---/------2----/-----6------/-----------5--/
g.----3----/-----3-----/----6-------/-----------6--/
d.---3-----/----4------/---6--------/-----------7--/
a.--1------/---4-------/--4---------/-----------7--/
E.-1-------/--2--------/-4----------/-----------5--/

    que el   destino se   ensaña conmigo
e.------1--/-------2----/--------4------/--------5--/
b.-----2---/------2-----/-------6-------/--------5--/
g.----3----/-----3------/------6--------/--------6--/
d.---3-----/----4-------/-----6---------/--------7--/
a.--1------/---4--------/----4----------/--------7--/
E.-1-------/--2---------/---4-----------/--------5--/


  siempre en mi contra nunca con una explicacion

e.------1--/-------2----/--------4------/--------55--/  aqui vuelve
b.-----2---/------2-----/-------6-------/--------55--/  a rasgar el
g.----3----/-----3------/------6--------/--------66--/  acorde la
d.---3-----/----4-------/-----6---------/--------77--/  
a.--1------/---4--------/----4----------/--------77--/
E.-1-------/--2---------/---4-----------/--------55--/

En la siguiente parte solo se rasguea una vez

     es como un gran manto que me envuelve
e.-1--/------------------------------2----/
b.-2--/------------------------------2----/
g.-3--/------------------------------3----/
d.-3--/------------------------------4----/
a.-1--/------------------------------4----/
E.-1--/------------------------------2----/

      en la mas profunda soledad      y no lo entiendo

e.-4--/------------------------5----/
b.-6--/------------------------5----/
g.-6--/------------------------6----/
d.-6--/------------------------7----/
a.-4--/------------------------7----/
E.-4--/------------------------5----/

(aqui vuelve a aparecer la segunda guitarra con los semitonos
mientras la primera guitarra sigue con los arpegios)

     pero no voy a soportarlo 

d.-3---------------------6
a.-1-----------4---------4     
E.-------------2----------

     pero jamas voy a cambiar

d.-3---------------------6
a.-1-----------4---------4     
E.-------------2----------


como un halcon de invierno prefiero volar y alejarme de ti
 
d.-3---------------------6
a.-1-----------4---------4     
E.-------------2----------

por que no voy a soportarlo no no no

d.-3---------------------6
a.-1-----------4---------4     
E.-------------2----------


A continuacion se repite el rasgeo de la primera parte con 
esta parte de la cancion

Si acaso no te gusta nada
mi forma de ser o pensar
hasta el color se va y es suficiente para hacer notar
que no es bien vista mi manera de amar 

es como un gran...

despues de este coro  viene esta parte

d.-9-9-9-7----9-9-9-7----9-9-9-7----14-14-14-14-14/12
a.-7-7-7-5----7-7-7-5----7-7-7-5----12-12-12-12-12/10     
E.---------------------------------------------------

  por que este halcon se refugia volando en mi interior

d.-9-9-9-7----9-9-9-7----9-9-9-7----14-14-14-14-14/12
a.-7-7-7-5----7-7-7-5----7-7-7-5----12-12-12-12-12/10     
E.---------------------------------------------------

  mientras mas presion redescubriras a mi corazon

d.-9-9-9-7----9-9-9-7----9-9-9-7----14-14-14-14-14/12 
a.-7-7-7-5----7-7-7-5----7-7-7-5----12-12-12-12-12/10     
E.---------------------------------------------------

    y no no hay otro igual lo voy a demostrar 

d.-9-------------------9-------------------7
a.-7-------------------7-------------------5

   y no no hay otro igual ya me buscaras

SOLO

ahora viene el solo  tengo poquito menos
de la mitad y estoy trabajando dia y noche en el 
cuando lo tenga lo pondre

Se repite la parte del coro hasta que se acabe la cancion

es como un...

como un halcon de invierno ...

Bueno este es mi primer tab que pongo aqui espero que
me llegen comentarios y si hay errores por favor mandenlos
a mi correo franjalopez@

Y aprovecho para decir que desde el dia que llegaste Carmen
te has quedado en mi corazon, TE AMO y Gracias por todo 
este tiempo juntos

            
            
Suggest correction
Creating personal tab
Creating personal tab
You can edit any tab online and save it as your Personal.

You can edit, replace or remove any tab part or add personal notes – all changes will be seen only by you.

Personal tabs can be accessed anytime from any device, even offline.
Learn more »
Give kudos to tab author, rate the tab!
1 2 3 4 5
comments
print report bad tab
guest
Wanna post a correction for this tab? Suggest correction