Oops, an error
Loading. Please wait.

4 Años bass

12 views 1 this week
no commentswrite comment
1 2 3 4 5
3 more votes to show rating
add to favorites
×
Save as Personal and add changes to this tab that will be seen only by you. Learn more ›
×
You can save this tab as Personal to edit and correct it or add notes. All changes will be seen only by you. Learn more »
launch autoscroll
font size
0
reset
guitar tuner
edit
Autoscroll
slow
fast
+/-
esc
set tempo
stop
VERSO: No puede ver qe la ciudad...
G|------------------------------|
D|------------------------------|
A|--5---------------------------|
E|--------3-------7------5------|

VERSO: Hoy es el dia que todos...
G|------------------------------------|
D|------------------------------------|
A|-55555555---------------------------|
E|----------33333333-77777777-5555555-|

CORO: Todos sabemos que no habra
G|------------------------|-------------------|
D|------------------------|-------------------|
A|------------------------|-------------------|
E|-3333-5555-7777-5-3-5-3-|-33333333-5555555--|

VERSO: Mañana tendremos un nuevo Dios...
G|---------------------------------------------x2---|
D|-------7-6----------------------------------------|
A|-55555-----5-------5-4----------9-7---------7-6-9-|
E|-------------33333-----4--77777-----7--5555-------|

CORO: Todos sabemos que no habra...
G|---------------------|-------------------|
D|---------------------|-------------------|
A|---------------------|-------------------|
E|-3333-5555-7777-5555-|-33333333-5555555--|

VERSO: Y no esta bien...
G|------------------------------------|----------|
D|--------------------------x2--------|----------|
A|-55555555---------------------------|----------|
E|----------55555555-77777777-3333333-|-33333333-|

(Solo el bajo y la bateria)
G|--------------------------------------|
D|---------------------------------X2---|
A|-55555555-----------------------------|
E|----------33333333-77777777-55555555--|

(Cuando entran las guitarras)
G|--------------------|-----------------|
D|--------------------|-----------------|
A|--------------------|-XXXXXXXXXXXXX---|
E|-33333333-55555555--|-----------------|

FINAL:
G|--------------|
D|--------------|
A|--5---4---5---|
E|--------------|

SI BUSCAS CANCIONES DE CHITE O ALGUNOS OTROS GRUPOS COLOMBIANOS
ESCRIBANME AL CORREO ROCKANDRES182@

            
            
Suggest correction
Creating personal tab
Creating personal tab
You can edit any tab online and save it as your Personal.

You can edit, replace or remove any tab part or add personal notes – all changes will be seen only by you.

Personal tabs can be accessed anytime from any device, even offline.
Learn more »
Give kudos to tab author, rate the tab!
1 2 3 4 5
comments
print report bad tab
guest
Wanna post a correction for this tab? Suggest correction