Oops, an error
Loading. Please wait.

50 Segundos bass

11 views 1 this week
no commentswrite comment
1 2 3 4 5
3 more votes to show rating
add to favorites
×
Save as Personal and add changes to this tab that will be seen only by you. Learn more ›
×
You can save this tab as Personal to edit and correct it or add notes. All changes will be seen only by you. Learn more »
launch autoscroll
font size
0
reset
guitar tuner
edit
Autoscroll
slow
fast
+/-
esc
set tempo
stop
Intro:
G|-----------------------------------------------|
D|-----------------------------------------------|
A|-7777777777-----------------------44444-66666--|
E|------------5555555555-7777777777--------------|

G|-------------------------------------------------------|
D|-------------------------------------------------------|
A|-7777777777-----------------------44-446-6--8-6-5------|
E|------------5555555555-7777777777-----------------6?-8-|

?Cuando estoy solo empiezo a imaginar...?
G|------------------------------------------------------|
D|------------------------------------------------------|
A|-55-55-5-6-8------------------------------------------|
E|--------------55-55-5-6-8--77-77-7-8-10--55-55-8-6-5--|

?Es un poco difícil creer q yo lo lograre...?
G|-----------------------------------------------------|
D|-----------------------------------------------------|
A|-55-55-5-5-5-----------------------------------------|
E|--------------55-55-5-5-5--77-77-7-7-7-55-55-5-5-5---|

?Pero lo intentare¡¡¡?
G|-----------------------------------|
D|-----------------------------------|
A|-----------------------------------|
E|-77-77-777-77-7--55-55-555-5-6-8---|

?Todos mis amigos se ríen al ver...?
G|------------------------------------------------------|
D|------------------------------------------------------|
A|-55-55-5-6-8------------------------------------------|
E|--------------55-55-5-6-8--77-77-7-8-10--55-55-8-6-5--|

?Que las cosas que yo sueño...?
G|-----------------------------------------------------|
D|-----------------------------------------------------|
A|-55-55-5-5-5-----------------------------------------|
E|--------------55-55-5-5-5--77-77-7-7-7-55-55-5-5-5---|

?No me importa yo lo intentare?
G|-------------------------------------|
D|-------------------------------------|
A|----------55555----------------------|
E|-55-5-5----------55555-777777-5------|

FINAL:
G|------------------------------------------------------|
D|-------------------------------------------------X2---|
A|-55-55-5-6-8------------------------------------------|
E|--------------55-55-5-6-8--77-77-7-8-10--55-55-8-6-5--|

G|-----------------------------------------------|
D|-----------------------------------------------|
A|-55-55-5-6-8------------------------------5----|
E|--------------55-55-5-6-8--5----7-----5--------|


Cuanto estoy solo
Empiezo a imaginar
Que todos mis sueños se hacen realidad,
Es un poco difícil creer que yo lo lograré
Pero lo intentaré...

Todos mis amigos se ríen al ver,
Que yo soy un tonto y no lo puedo entender
Que las cosas que yo sueño no son para la gente bien
No me importa,
Yo lo intentaré.


ESTOY BUSCANDO FORMAR UNA BADNA DE PUNK EN BOGOTA(NECESITO BATERO
Y BAJO) ENTONCES INTERESADOS AL CORREO ROCKANDRES182@
Suggest correction
Creating personal tab
Creating personal tab
You can edit any tab online and save it as your Personal.

You can edit, replace or remove any tab part or add personal notes – all changes will be seen only by you.

Personal tabs can be accessed anytime from any device, even offline.
Learn more »
Give kudos to tab author, rate the tab!
1 2 3 4 5
comments
print report bad tab
guest
Wanna post a correction for this tab? Suggest correction